Song name
# A B C D E F G H I J K L M N O P Q R S T U V W X Y Z

Lumineers - Charlie Boy tab

Intro/Verse

e|--------------10--12--10----------12--10-----10----|
B|------10--12--------------12--------------12-----12|
G|--12-----------------------------------------------|
D|---------------------------------------------------|
A|---------------------------------------------------|
E|---------------------------------------------------|

e|--------------10--12--10----------12--10-----10------ |
B|------10--12--------------12--------------12----13-12-|
G|--12--------------------------------------------------|
D|------------------------------------------------------|
A|------------------------------------------------------|
E|------------------------------------------------------|
Tap to rate this tab
 
# A B C D E F G H I J K L M N O P Q R S T U V W X Y Z