Song name
# A B C D E F G H I J K L M N O P Q R S T U V W X Y Z

Lumineers - Flapper Girl tab

e|----0--3---0-------1--1--0-------------------------------------------------|
B|-3-------3-----1-------------1--3--0---------------------------------------|
G|---------------------------------------------------------------------------|
D|---------------------------------------------------------------------------|
A|---------------------------------------------------------------------------|
E|---------------------------------------------------------------------------|

e|----0--3-----0--5----8----3----0--3--0-------------------------------------|
B|-3--------3------------------------------3---1-----------------------------|
G|---------------------------------------------------------------------------|
D|---------------------------------------------------------------------------|
A|---------------------------------------------------------------------------|
E|---------------------------------------------------------------------------|
Tap to rate this tab
 
# A B C D E F G H I J K L M N O P Q R S T U V W X Y Z