Song name
# A B C D E F G H I J K L M N O P Q R S T U V W X Y Z

Lumineers - Elouise tab

Elouise by the Lumineers

Standard tuning

Chords:
C      = x|3|2|0|1|0
G6     = 3|2|0|0|0|X
F      = x|3|3|2|1|x
Am     = x|0|2|2|1|0

(4/4 time with triplets)

-Intro:

  C                                C        G6       C
e------|-------------------------|----0--0-----------0---------|
B------|---1-------3--------5----|----1--1-----0--0--1---------|
G------|-------------------------|----0--0-----0--0--0---------|
D----0-|-2---2--3-----3--5-------|----2--2-----0--0--2-------0-|
A-3----|-------------------------|-3--3--3-----2--2--3----3----|
E------|-------------------------|----------3--3--3------------|

  C                                C        G6       C
e------|-------------------------|----0--0-----------0---------|
B------|---1-------3--------5----|----1--1-----0--0--1---------|
G------|-------------------------|----0--0-----0--0--0---------|
D----0-|-2---2--3-----3--5-------|----2--2-----0--0--2---------|
A-3----|-------------------------|-3--3--3-----2--2--3---------|
E------|-------------------------|----------3--3--3------------|

-Verse 1:

C         G6           F               C           Am
If you're down on your luck, don't get down on yourself
         G6        C
it won't do you no good
C                G6            F        C       Am
'cause I've been there before, fought a hundred wars
    G6                     C
And I'm still fighting for you

-Chorus:

F     C    G6        C
E-lou-ise, why'd you leave?
F      Am       G6         C
Please confess, confess to me.
F       C     G6     C
Sing my song, patiently
F   Am   G6         C     (Repeat Intro) 
And I'll return, my E-lou-ise.

-Interlude: (2 times)

  C                                      C       G6       C
e----0--0-----------------------------|----0--0-----------0----|
B----1--1------3--3-----5--5-----6--6-|----1--1-----0--0--1----|
G----0--0------0--0-----0--0-----0--0-|----0--0-----0--0--0----|
D----2--2---3--3--3--5--5--5--7--7--7-|----2--2-----0--0--2----|
A-3--3--3-----------------------------|-3--3--3-----2--2--3----|
E-------------------------------------|----------3--3--3-------|


-Verse 2:

C        G6      F        C           
Let's be Alison, let's be David Burn
Am        G6           C
Let's all learn how to dance
F         C         G   C        F 
Move your feet in time, put your hand in mine
Am      G6            C
We will waltz once again.

-Chorus:
C        G6        C           
Elouise, why'd you leave?
Am     G6           C
Please confess, confess to me.
F       C     G6     C
Sing my song, patiently
Am       G6         C   (Repeat Intro)
And I'll return, my Elouise.

C        G6        C           
Elouise, why'd you leave?
Am     G6           C
Please confess, confess to me.
F       C     G      C
Song my song, graciously
Am       G6         C-(Coda)
We will waltz, Elouise.

-Coda:

  C                                      C       G6       C
e----0--0-----------------------------|----0--0-----------0----|
B----1--1------3--3-----5-------------|----1--1-----0--0--1----|
G----0--0------0--0-----0-------------|----0--0-----0--0--0----|
D----2--2---3--3--3--5--5-------------|----2--2-----0--0--2----|
A-3--3--3-----------------------------|-3--3--3-----2--2--3----|
E-------------------------------------|----------3--3--3-------|

or

  C                             C        G6       C
e------|----------------------|----0--0-----------0----|
B------|----1-------3-------5-|----1--1-----0--0--1----|
G------|----------------------|----0--0-----0--0--0----|
D----0-|-2----2--3-----3--5---|----2--2-----0--0--2----|
A-3----|----------------------|-3--3--3-----2--2--3----|
E------|----------------------|----------3--3--3--3----|

ReynoldsG
Tap to rate this tab
 
# A B C D E F G H I J K L M N O P Q R S T U V W X Y Z