Luminites - Hurt So Good tab

-------------------------------------------------------------------------------
                             Hurt So Good - Luminites
-------------------------------------------------------------------------------
Tabbed by: AkumaL

Err, first tab ever so please do tell me if anything's wrong thanks :)

Capo: 3rd Fret

Intro & "First you take my heart in the palm of your hands"   UP TO   "You take me in 
your arms baby and bounce me like a rubber ball"
e|------------x-------------x-------------x----------------------------|
B|-----3------x------0------x-------3-----x------3------0h1------0-----|
G|-----0------x------0------x-------0-----x------0------0----2---0-----|
D|------------x-------------x-------------x-------------0--------------|
A|------------x------2------x----3--------x----------------------------|
E|-----3------x-------------x-------------x------3---------------------|

e|------------x-------------x-------------x----------------2----3------------|
B|-----3------x------0------x-------------x------------3---3----3------------|
G|-----0------x------0------x-------0-----x------0-----2---------------------|
D|------------x-------------x-------0-----x------0-----0---------------------|
A|------------x------2------x----3--------x----------------------------------|
E|-----3------x-------------x-------------x------3---------------------------|


************************************

| h   hammer-on
| p   pull-off
| x   slap

************************************
Tap to rate this tab
 
# A B C D E F G H I J K L M N O P Q R S T U V W X Y Z