Song name
# A B C D E F G H I J K L M N O P Q R S T U V W X Y Z

Lummox - Pissed And Proud tab

from natural born swillers

intro
|--------------------|---------------------|
|--------------------|---------------------|
|--------------------|---------------------|
|--------------------|---------------------|
|-7----------2-------|-7------3-5-6-7------|
|--------5-7-0-------|-5------------5------|


bridge
|--------------------|
|--------------------|
|--------------------|
|---------------7----|
|-9-8-7-5-6-7-8-5-7--|
|-7-6-5-3-4-5-6---5--|


riff 1
|-----------------|---------------|
|-----------------|---------------|
|-----------------|---------------|
|-----------------|-2-22-22-5-7-8-|
|---------5--7--8-|-0-00-00-3-5-6-|
|-0-00-00-3-05-06-|---------------|


end
|------------------------------|
|------------------------------|
|------------------------------|
|------------------------------|
|-2--2-5--5-6--6-7--7-8-----2--|
|-0--0-3--3-4--4-5--5-6--2^-0--|

www.discogs.com/Lummox-Natural-Born-Swillers/release/1611685
Tap to rate this tab
# A B C D E F G H I J K L M N O P Q R S T U V W X Y Z