Song name
# A B C D E F G H I J K L M N O P Q R S T U V W X Y Z

Lummox - Natural Born Swillers tab

from natural born swillers

riff 1
|------------------------------------|
|------------------------------------|
|------------------------------------|
|-7--------7--------7--------7-99-99-|
|-5--------5--------5--------5-77-77-|
|---000000---000000---000000---------|


riff 2
|-----------------------------------------------------------------|
|-----------------------------------------------------------------|
|-----------------------------------------------------------------|
|-----------------------------------------------------------------|
|-2-22-22-5-55-55-8-88-88-7-77-77-2-22-22-5-55-55-8-88-88-7-7-5-5-|
|-0-00-00-3-33-33-6-66-66-5-55-55-0-00-00-3-33-33-6-66-66-5-5-3-3-|


riff 3
|------------------|-------------|
|------------------|-------------|
|------------------|-------------|
|-6-6--------------|-------------|
|-4-4-5-5----55-55-|-8-888888-7--|
|-----3-3--0-33-33-|-6-666666-5--|

http://www.discogs.com/Lummox-Natural-Born-Swillers/release/1611685
Tap to rate this tab
 
# A B C D E F G H I J K L M N O P Q R S T U V W X Y Z