Song name
# A B C D E F G H I J K L M N O P Q R S T U V W X Y Z

Lummox - Hockey Fight tab

from natural born swillers

riff 1                                                                    fill
|----------------------------------|-------------------------------------|-----|
|----------------------------------|-------------------------------------|-----|
|----------------------------------|-------------------------------------|-----|
|----------------------------------|-------------------------------------|-----|
|----------------------------------|-----4------4-------4------4------4--|-----|
|-0-1-2-22222222222222222222222222-|-0-1-2------2-------2------2------2--|-0-1-|


riff 2             end 1             end 2
|------------------|-----------------|-------------------|
|------------------|-----------------|-------------------|
|------------------|-----------------|-------------------|
|------------------|-----------------|-------------------|
|-4-44-44--7--9--7-|-4-44-44-4-44-44-|-4-44-44--7--9--7--|
|-2-22-22--5--7--5-|-2-22-22-2-22-22-|-2-22-22--5--7--5--|


riff 3
|-------------------------------------------------------------------------------|
|-------------------------------------------------------------------------------|
|-------------------------------------------------------------------------------|
|-4-44-44-4-44-44-4-44-44-4-44-44-6-66-66-6-66-66-------------2--------------2--|
|-2-22-22-2-22-22-2-22-22-2-22-22-4-44-44-4-44-44-4p2p0-4p2p0-0--4p2p0-4p2p0-0--|
|-------------------------------------------------------------------------------|


riff 4
|-------------------------------------------------------------------------------|
|-------------------------------------------------------------------------------|
|-------------------------------------------------------------------------------|
|---------------------------------4-44-44-4-44-44-------------2--------------2--|
|-4-44-44-4-44-44-7-77-77-7-77-77-2-22-22-2-22-22-4p2p0-4p2p0-0--4p2p0-4p2p0-0--|
|-2-22-22-2-22-22-5-55-55-5-55-55-----------------------------------------------|


http://www.discogs.com/Lummox-Natural-Born-Swillers/release/1611685
Tap to rate this tab
# A B C D E F G H I J K L M N O P Q R S T U V W X Y Z