Song name
# A B C D E F G H I J K L M N O P Q R S T U V W X Y Z

Lummox - Drinkn N Fightn tab

from natural born swillers

riff 1                   end 1    end 2    end 3     end 4      last
|-----------------------|--------|--------|---------|---------|--------|
|-----------------------|--------|--------|---------|---------|--------|
|-----------------------|--------|--------|---------|---------|--------|
|-----------------------|--------|--------|---------|---------|--------|
|-2-2---2-2---2-2---2-2-|--------|--------|---------|---------|--------|
|-0-0---0-0---0-0---0-0-|-5^~----|-6^~----|-6p5^~---|-3-0-3h5-|-6-5-3--|


riff 2
|----------------------------------------------------|
|----------------------------------------------------|
|----------------------------------------------------|
|----------------------------------------------------|
|-8---8-8-8--8--8-8--8-7-5-2--2-2-2---2--2-2-5---5-7-|
|-6---6-6-6--6--6-6--6-5-3-0--0-0-0---0--0-0-3-0-3-5-|

http://www.discogs.com/Lummox-Natural-Born-Swillers/release/1611685
Tap to rate this tab
 
# A B C D E F G H I J K L M N O P Q R S T U V W X Y Z