Song name
# A B C D E F G H I J K L M N O P Q R S T U V W X Y Z

Lummox - Dd At The China Kitchen tab

from natural born swillers

riff 1
|---------------------------------------------------------------|
|---------------------------------------------------------------|
|---------------------------------------------------------------|
|-----------------7-77-5--55-5-5--------------------------------|
|-----------------5-55-3--33-3-3-----------------5-55-3--33-3-3-|
|-0-00-00-0-00-00----------------0-00-00-0-00-00-3-33-1--11-1-1-|


riff 2
|-------------------------------------|--------------------------------------------|
|-------------------------------------|--------------------------------------------|
|-------------------------------------|--------------------------------------------|
|------------5------------------------|-------------7-6-5-55-55-5-55-55------------|
|-2----------3---------5------7---9---|-------------5-4-3-33-33-3-33-33-5-55-55-5-5|
|-0--------------------3------5---7---|-0-00-00-0-0---------------------3-33-33-3-3|

-------------------|
-------------------|
-------------------|
-------------------|
-9-7-77-77-9-99-99-|
-7-5-55-55-7-77-77-|


riff 3
|------------------------|------------------|
|------------------------|------------------|
|------------------------|------------------|
|------------------------|------------------|
|---------5p3p0h3--0h3p2-|-5--5--9-7--7--7--|
|-0-00-00----------------|-3--3--7-5--5--5--|

http://www.discogs.com/Lummox-Natural-Born-Swillers/release/1611685
Tap to rate this tab
# A B C D E F G H I J K L M N O P Q R S T U V W X Y Z