Song name
# A B C D E F G H I J K L M N O P Q R S T U V W X Y Z

Lummox - Beautiful Needle Pokin Hos tab

from natural born swillers

riff 1
|-----------------------------------------------------------------|
|-----------------------------------------------------------------|
|-----------------------------------------------------------------|
|-----------------------------------------------------------------|
|-7-99-99-7-99-99-7-99-99-9-7-6-5-5-77-77-7-77-77---88-88-8-88-88-|
|-5-77-77-5-77-77-5-77-77-6-5-4-3-3-55-55-5-55-55-0-66-66-6-66-66-|


riff 2
|---------------------------------------------------------|
|---------------------------------------------------------|
|---------------------------------------------------------|
|---------------------------------------------------------|
|-9-8-7------8-7-6-5-----------9-8-7------8-7-6-5-5-77-77-|
|-7-6-5------6-5-4-3-xxxxxxxxx-7-6-5------6-5-4-3-3-55-55-|


riff 3
|-----------------------------------------------------------------|
|-----------------------------------------------------------------|
|-------------------------4-------------------------------4-------|
|-4-66-66-4-66-66-4-66-66-2-6-5-4-3-33-33-3-33-33-4-44-44-2-6-5-4-|
|-2-44-44-2-44-44-2-44-44---4-3-2-1-11-11-1-11-11-2-22-22---4-3-2-|
|-----------------------------------------------------------------|


riff 4
|-----------------------|-----|
|-----------------------|-----|
|-----------------------|-----|
|-----------------------|-----|
|-----------------------|-9---|
|-7--5--0--5--7--55-0-5-|-7---|

http://www.discogs.com/Lummox-Natural-Born-Swillers/release/1611685
Tap to rate this tab
 
# A B C D E F G H I J K L M N O P Q R S T U V W X Y Z