Song name
# A B C D E F G H I J K L M N O P Q R S T U V W X Y Z

Lummox - The Midnight Rockstar tab

from Natural Born Swillers

riff 1:
|---0-------00--------|
|---0-------00--------|
|---------------------|
|---------------------|
|-----012-------------|
|-0-------0-----3b-3b-|

riff 2:
|---0---0---0---0-|---00----------0-----|
|---0---0---0---0-|---00----------0-----|
|-----------------|---------------------|
|-----------------|---------------------|
|-----------------|-----------------012-|
|-0---3---5---6---|-0-----3b-3b-0-------|

riff 3a:
|--------------0----0-0-|--------------------------------0-|
|--------------0----0-0-|--------------------------------0-|
|-----------------------|-3p2p0-3p2p0----------------------|
|-----------------------|-------------3p2p0----------------|
|-0-1-2-2---------------|-------------------0-1-2-2--------|
|---------3b-0---3b-----|---------------------------3b-0---|
Tap to rate this tab
# A B C D E F G H I J K L M N O P Q R S T U V W X Y Z