Song name
# A B C D E F G H I J K L M N O P Q R S T U V W X Y Z

Lumsk - Ormin Lange tab

(www.lumsk.com/ a great band of folk metal!)
- - - - - - - - - - - - - - - - - - - - - - - - - - - - - - - - - - - - - - - 
Gtr I (B E A D F# B) 


                          Intro
Q=97
4/4
                          Gtr I
      PM------|   PM------|      PM------|   PM------|
    |-3-| |-3-| |-3-| |-3-|    |-3-| |-3-| |-3-| |-3-|
    E E E E E E E E E E E E    E E E E E E E E E E E E
||--------------------------|---------------------------||
||o-------------------------|--------------------------o||
||--------------------------|---------------------------||
||--------------------------|---------------------------||
||o-9-----------9-----------|-11-----------8-----------o||
||--5-2-2-2-2-2-5-2-2-2-2-2-|--7-2-2-2-2-2-4-2-2-2-2-2--||


                                          1.              2.
      PM------|   PM------|     PM------|   PM------|
    |-3-| |-3-| |-3-| |-3-|   |-3-| |-3-| |-3-| |-3-|     |-3-| |-3-|
    E E E E E E E E E E E E   E E E E E E E E E E E E     E E E E E E
||--------------------------|--------------------------||-------------||
||o-------------------------|-------------------------o||-------------||
||--------------------------|--------------------------||-------------||
||--4-----------4-----------|-4-----------4------------||-5-5-5-5-5-5-||
||o-4-----------4-----------|-5-----------3-----------o||-5-5-5-5-5-5-||
||--2-2-2-2-2-2-2-2-2-2-2-2-|-2-2-2-2-2-2-2-2-2-2-2-2--||-3-3-3-3-3-3-||


   Intro w/Violin
    $
            PM|         PM|               PM|         PM|
    |-3-| |-3-| |-3-| |-3-|    |--3--|  |-3-| |-3-| |-3-|
    E E E E E E E E E E E E    E  E  E  E E E E E E E E E
||--------------------------|-------------------------------||
||o-------------------------|------------------------------o||
||--------------------------|-------------------------------||
||--7-7-7-7-----7-7-7-7-----|--9--9--9--9-----6-6-6-6-------||
||o-9-9-9-9-----9-9-9-9-----|-11-11-11-11-----8-8-8-8------o||
||--5-5-5-5-2-2-5-5-5-5-2-2-|--7--7--7--7-2-2-4-4-4-4-2-2---||


                                          1.              2.
                                                           To Coda
            PM|         PM|           PM|         PM|
    |-3-| |-3-| |-3-| |-3-|   |-3-| |-3-| |-3-| |-3-|     |-3-|
    E E E E E E E E E E E E   E E E E E E E E E E E E     E E E Q
||--------------------------|--------------------------||----------||
||o-------------------------|-------------------------o||----------||
||--------------------------|--------------------------||----------||
||--4-4-4-4-----4-4-4-4-----|-4-4-4-4-----4-4-4-4------||-5-5-5-5--||
||o-4-4-4-4-----4-4-4-4-----|-5-5-5-5-----3-3-3-3-----o||-5-5-5-5--||
||--2-2-2-2-2-2-2-2-2-2-2-2-|-2-2-2-2-2-2-2-2-2-2-2-2--||-3-3-3-3--||


   Heavy riff
    Q=77
                            D.S.
   3/4
    PM--------------------|
    S S S S S S S S S S S S  4x
||---------------------------||--|
||o-------------------------o||--|
||---------------------------||--|
||---------------------------||--|
||o-5-4-2-4-5-4-4-5-4-4-5-4-o||--|
||--3-2-0-2-3-2-2-3-2-2-3-2--||--|


    Q=97
    &
               PM|            PM|                   PM|            PM|
    |--3---| |-3-| |--3---| |-3-|    |----3----|  |-3-| |--3---| |-3-|
    E. S S S E E E E. S S S E E E    E.  S  S  S  E E E E. S S S E E E
||--------------------------------|-------------------------------------||
||o-------------------------------|------------------------------------o||
||--------------------------------|-------------------------------------||
||--7--7-7-7-7-----7--7-7-7-7-----|--9---9--9--9--9-----6--6-6-6-6------||
||o-9--9-9-9-9-----9--9-9-9-9-----|-11--11-11-11-11-----8--8-8-8-8-----o||
||--5--5-5-5-5-2-2-5--5-5-5-5-2-2-|--7---7--7--7--7-2-2-4--4-4-4-4-2-2--||


                                          1.              2.
            PM|         PM|           PM|         PM|
    |-3-| |-3-| |-3-| |-3-|   |-3-| |-3-| |-3-| |-3-|     |-3-|
    E E E E E E E E E E E E   E E E E E E E E E E E E     E E E Q
||--------------------------|--------------------------||----------||
||o-------------------------|-------------------------o||----------||
||--------------------------|--------------------------||----------||
||--4-4-4-4-----4-4-4-4-----|-4-4-4-4-----4-4-4-4------||-5-5-5-5--||
||o-4-4-4-4-----4-4-4-4-----|-5-5-5-5-----3-3-3-3-----o||-5-5-5-5--||
||--2-2-2-2-2-2-2-2-2-2-2-2-|-2-2-2-2-2-2-2-2-2-2-2-2--||-3-3-3-3--||


   Heavy Riff II
    Q=77
    PM-------------------------
    S S S S S S S S S S S S  5x
||---------------------------||
||o-------------------------o||
||---------------------------||
||---------------------------||
||o-5-4-2-4-5-4-4-5-4-4-5-4-o||
||--3-2-0-2-3-2-2-3-2-2-3-2--||


 -------|
  S S S S S  S S S S S S S     S S S S S  S S S S S S S
|--------------------------||----------------------------||
|--------------------------||o--------------------------o||
|--------------------------||----------------------------||
|--------------------------||----------------------------||
|-5-4-2-4-5-4-4-5-4-4-5-4-||o-5-4-2-4-5-4-4-5-4-4-5-4-o||
|-3-2-0-2-3-2-2-3-2-2-3-2-||--3-2-0-2-3-2-2-3-2-2-3-2--||


 Bridge/Verse
  Q=97
  $$
  PM----|                   PM----|
  |-3-| |-3-| |-3-| |-3-|   |-3-| |-3-| |-3-| |-3-|
  E E E E E E E E E E E E   E E E E E E E E E E E E
|-------------------------|-------------------------|
|-------------------------|-------------------------|
|-------------------------|-------------------------|
|-4-4-4-4-5-4-2-----------|-4-4-4-4-5-4-2-----------|
|-4-4-4-4-------5-4-2-4-5-|-4-4-4-4-------5-4-2-4-5-|
|-2-2-2-2-----------------|-2-2-2-2-----------------|


                                        To Dbl. Coda
  PM----|                     PM----|
  |-3-| |-3-| |-3-|   |-3-|   |-3-| |-3-| |-3-| |-3-|
  E E E E E E E E E   E E E   E E E E E E E E E E E E   +H
|-------------------|-------|-------------------------|--------||
|-------------------|-------|-------------------------|--------||
|---------5-4-2-----|-------|-------------------------|--------||
|-4-4-4-4-5-4-2-5-4-|-2-4-5-|-4-4-4-4-5-4-2-----------|--------||
|-4-4-4-4-------5-4-|-2-4-5-|-4-4-4-4-------5-4-2-4-5-|-(5)----||
|-2-2-2-2-----------|-------|-2-2-2-2-----------------|--------||


   2/4
      PM--|   PM--|     PM--|   PM--|     PM--|   PM--|     PM--|   PM--|
      |-3-|   |-3-|     |-3-|   |-3-|     |-3-|   |-3-|     |-3-|   |-3-|
    E S S S E S S S   E S S S E S S S   E S S S E S S S   E S S S E S S S
||------------------|-----------------|-----------------|-----------------|
||o-----------------|-----------------|-----------------|-----------------|
||--2-------2-------|-----------------|-----------------|-6-------6-------|
||--2-------2-------|-7-------7-------|-6-------6-------|-7-------7-------|
||o-4-4-4-4-4-4-4-4-|-4-4-4-4-4-4-4-4-|-4-4-4-4-4-4-4-4-|-0-0-0-0-0-0-0-0-|
||------------------|-----------------|-----------------|-----------------|


                                      1.,2.,3.            4.
                                                              D.S.S.
    PM--|   PM--|     PM|     PM--|     PM--|   PM--|       PM--|
    |-3-|   |-3-|     |-3-|   |-3-|     |-3-|   |-3-|       |-3-|
  E S S S E S S S   E S S S E S S S   E S S S E S S S  3x E S S S Q
|-----------------|-----------------|------------------||------------||
|-----------------|-----------------|-----------------o||------------||
|-4-------4-------|-4-------4-------|-6-------6--------||-6-------6--||
|-4-------4-------|-4-------4-------|-7-------7--------||-7-------7--||
|-2-2-2-2-2-2-2-2-|-2-2-2-2-2-2-2-2-|-4-4-4-4-4-4-4-4-o||-4-4-4-4-4--||
|-----------------|-----------------|------------------||------------||


   Synth Choir
    &&
      PM--|   PM--|     PM--|   PM--|     PM--|   PM--|     PM--|   PM--|
      |-3-|   |-3-|     |-3-|   |-3-|     |-3-|   |-3-|     |-3-|   |-3-|
    E S S S E S S S   E S S S E S S S   E S S S E S S S   E S S S E S S S
||------------------|-----------------|-----------------|-----------------|
||o-----------------|-----------------|-----------------|-----------------|
||--2-------2-------|-----------------|-----------------|-6-------6-------|
||--2-------2-------|-7-------7-------|-6-------6-------|-7-------7-------|
||o-4-4-4-4-4-4-4-4-|-4-4-4-4-4-4-4-4-|-4-4-4-4-4-4-4-4-|-0-0-0-0-0-0-0-0-|
||------------------|-----------------|-----------------|-----------------|


                                      1.,2.,3.            4.
    PM--|   PM--|     PM|     PM--|
    |-3-|   |-3-|     |-3-|   |-3-|     |-3-|   |-3-|       |-3-|
  E S S S E S S S   E S S S E S S S   E S S S E S S S  3x E S S S Q
|-----------------|-----------------|------------------||-------------||
|-----------------|-----------------|-----------------o||-------------||
|-4-------4-------|-4-------4-------|------------------||-------------||
|-4-------4-------|-4-------4-------|-1-------1--------||-1-------1---||
|-2-2-2-2-2-2-2-2-|-2-2-2-2-2-2-2-2-|-2-2-2-2-2-2-2-2-o||-2-2-2-2-2---||
|-----------------|-----------------|------------------||-------------||


 Outro
  PM----|                   PM----|
  |-3-| |-3-| |-3-| |-3-|   |-3-|
  E E E E E E E E E E E E   E E E E
|-------------------------|------------*|
|-------------------------|------------*|
|-------------------------|------------*|
|-4-4-4-4-5-4-2-----------|-4-4-4-4----*|
|-4-4-4-4-------5-4-2-4-5-|-4-4-4-4----*|
|-2-2-2-2-----------------|-2-2-2-2----*|




-------------------------------------------------------------------------


Duration Legend
---------------
W - whole; H - half; Q - quarter; E - 8th; S - 16th; T - 32nd; X - 64th;
a - acciaccatura
+ - note tied to previous; . - note dotted; .. - note double dotted
Uncapitalized letters represent notes that are staccato (1/2 duration)
Irregular groupings are notated above the duration line
Duration letters will always appear directly above the note/fret number it
represents the
duration for.  Duration letters with no fret number below them represent
rests.  Multi-
bar rests are notated in the form Wxn, where n is the number of bars to
rest for.  Low
melody durations appear below the staff

Tablature Legend
----------------
 h   - hammer-on
 p   - pull-off
 b   - bend
 pb  - pre-bend
 r   - bend release (if no number after the r, then release immediately)
 /  - slide into or out of (from/to "nowhere")
 s   - legato slide
 S   - shift slide
 - natural harmonic
[n]  - artificial harmonic
n(n) - tapped harmonic
 ~   - vibrato
 tr  - trill
 T   - tap
 TP  - trem. picking
 PM  - palm muting
n/  - tremolo bar dip; n = amount to dip
 n  - tremolo bar down
 n/  - tremolo bar up
/n  - tremolo bar inverted dip
 =   - hold bend; also acts as connecting device for hammers/pulls
 <> - volume swell (louder/softer)
 x   - on rhythm slash represents muted slash
 o   - on rhythm slash represents single note slash

Misc Legend
-----------
 |  - bar
||  - double bar
||o - repeat start
o|| - repeat end
*|  - double bar (ending)
 :  - bar (freetime)
 $  - Segno
 &  - Coda
Tap to rate this tab
 
# A B C D E F G H I J K L M N O P Q R S T U V W X Y Z