Guitaretab - guitar tabs
Song name
# A B C D E F G H I J K L M N O P Q R S T U V W X Y Z

Luna Sea - Until The Day I Die tab

LUNA SEA  UNTIL THE DAY I DIE
Tabbed by: Annabel

Classical Guitar
Key: \ slide up and down

enjoy, luna sea/jrock lovers! xD
pls direct your questions/comments to hope_lifeline@hotmail.com

Intro
e|-0-----3-------3\------3-------3-0-----3-------3\------3-----------------|
B|---------3-------1-------3---------------3-------1-----------------------|
G|-------------------------------------------------------------------------|
D|---------2-------------------------------2-------------------------------|
A|-3---------------0-------2-------3---------------0-----------------------|
E|-------------------------------------------------------------------------|

e|-0-----3-------3\------3-------3\0-----3-------3\------3-----------------|
B|---------3-------1-------3---------------3-------1-----------------------|
G|-------------------------------------------------------------------------|
D|---------2-------------------------------2-------------------------------|
A|-3---------------0-------2-------3---------------0-----------------------|
E|-------------------------------------------------------------------------|

e|---------3---------------------------------------------------------------|
B|-----1-3-----------------------------------------------------------------|
G|---0---------------------------------------------------------------------|
D|-------------------------------------------------------------------------|
A|---2---------------------------------------------------------------------|
E|-------------------3-----------------------------------------------------|


Verse 1a
e|-0-----3-------3\------3-------3-0-----3-------3\------3-----------------|
B|---------3-------1-------3---------------3-------1-----------------------|
G|-------------------------------------------------------------------------|
D|---------2-------------------------------2-------------------------------|
A|-3---------------0-------2-------3---------------0-----------------------|
E|-------------------------------------------------------------------[x2]--|
1. Ame no hi ni wa/ kimi wo omotte/ Todokanu kono omoi/ dakishimete
2. Todoku na/ merodii ni nose/ Amaoto wo yoru made/ kazoe


Interlude 1
e|-0-----3-------3\------3-------3-0-----3-------3\------3-----------------|
B|---------3-------1-------3---------------3-------1-----------------------|
G|-------------------------------------------------------------------------|
D|---------2-------------------------------2-------------------------------|
A|-3---------------0-------2-------3---------------0-----------------------|
E|-------------------------------------------------------------------------|


Verse 1b
e|-0-----3-------3\------3-------3-0-----3-------3-------3-----------------|
B|---------3-------1-------3---------------3-------1-----------------------|
G|-------------------------------------------------------------------------|
D|---------2-------------------------------2-------------------------------|
A|-3---------------0-------2-------3---------------0-----------------------|
E|-------------------------------------------------------------------------|
  Doushite/ omoidasu no ka/ Chiisa na koro kiita/ kanashii uta

 
Chorus
e|-------0-------------------------------3---------------0-----------------|
B|-----1-------------------------------3-----------------------------------|
G|---2-------------------------------0-----------------2-------------------|
D|-2--------------\2-------0-------0-----------------2---------------------|
A|-0---------------2-------2-------2---------------0-----------------------|
E|---------------------------------3---------------------------------------|
  Kono mune wa itsumo/ amefuri de/ Kimi wa yurenagara/ kasunderu

e|-------1-------------------------------3---------------------------------|
B|-----1-------------------------------3-----------------------------------|
G|---2-------------------------------0-------------------------------------|
D|-3--------------\2-------0-------0---------------------------------------|
A|-----------------2-------2-------2---------------------------------------|
E|-1-------------------------------3---------------3-----------------------|
  Demo koe wa ima mo/ furueteru/ kimi no tame ni

[ Tab from: http://www.guitaretab.com/l/luna-sea/139972.html ]
Verse 2a
e|-8-------8------\8-------8-------8-------8------\8-------8---------------|
B|-----8-8-----8-8-----8-8-----8-8-----8-8-----8-8-----8-8-----8-----------|
G|-------------------------------------------------------------------------|
D|-------------------------------------------------------------------------|
A|---------7-------------------------------7-------------------------------|
E|-8---------------5-------7-------8---------------5-----------------------|
  Doushite/ namida ga deru no/ sunaosugita kara/ minna kitto

e|-8-------8------\8-------8-------8-------8-------------------------------|
B|-----8-8-----8-8-----8-8-----8-8-----8-8-----8-8-------------------------|
G|-9-------7-------5-------7-------9-------7-------------------------------|
D|-------------------------------------------------------------------------|
A|---------7-------------------------------7-------------------------------|
E|-8---------------5-------7-------8---------------------------------------|
  Doushite/ motometsuzukete/ demo owari ni shiyou


Interlude 2
e|-8-------8-------8-------8-------8-------8-------8-------8---------------|
B|-----8-8-----8-8-----8-8-----8-8-----8-8-----8-8-----8-8-----8-8---------|
G|-9-------7-------5-------7-------9-------7-------5-------7---------------|
D|-------------------------------------------------------------------------|
A|---------7-------------------------------7-------------------------------|
E|-8---------------5-------7-------8---------------5-------7---------------|

e|-8-------8-------8-------8-------8-------8-------8-------8---------------|
B|-----8-8-----8-8-----8-8-----8-8-----8-8-----8-8-----8-8-----8-8---------|
G|-9-------7-------5-------7-------9-------7-------5-------7---------------|
D|-------------------------------------------------------------------------|
A|---------7-------------------------------7-------------------------------|
E|-8---------------5-------7-------8---------------5-------7---------------|
 
Chorus
e|-------0-------------------------------3---------------0-----------------|
B|-----1-------------------------------3-----------------------------------|
G|---2-------------------------------0-----------------2-------------------|
D|-2--------------\2-------0-------0-----------------2---------------------|
A|-0---------------2---3---2-------2---------------0-----------------------|
E|---------------------------------3---------------------------------------|
  Kono mune wa itsumo/ amefuri de/ Kimi wa yurenagara/ kasunderu

e|-------1-------------------------------3---------------------------------|
B|-----1-------------------------------3-----3-1-3-0-----------------------|
G|---2-------------------------------0-------------------------------------|
D|-3--------------\2-------0-------0---------------------------------------|
A|-----------------2---3---2-------2---------------------------------------|
E|-1-------------------------------3---------------------------------------|
  Itsu made mo kitto/ furueteru/ hateru hi made


Bridge
e|-8-------8------\8-------8-------8-------8------\8-------8---------------|
B|-----8-8-----8-8-----8-8-----8-8-----8-8-----8-8-----8-8-----8-8---------|
G|-9-------7-------5-------7-------9-------7-------5-------7---------------|
D|-------------------------------------------------------------------------|
A|---------7-------------------------------7-------------------------------|
E|-8---------------5-------7-------8---------------5-------7---------[x3]--|
1. Ahh--/ Todokanaide hoshii/ utsukushii mama
2. Ahh--/ Todokanaide hoshii/ kanashimi ni
3. Ahh--/ Todokanaide hoshii

e|-8-------8-------8-------8-----------------------------------------------|
B|-----8-8-----8-------8-8-----8-------------------------------------------|
G|-9-0-------------9-0-----------------------------------------------------|
D|-------------------------------------------------------------------------|
A|-------------------------------------------------------------------------|
E|-8---------------8-------------------------------------------------------|
  Kanata e


Outro
e|-8-------8------\8-------8-------8-------8------\8-------8---------------|
B|-----8-8-----8-8-----8-8-----8-8-----8-8-----8-8-----8-8-----8-8---------|
G|-9-------7-------5-------7-------9-------7-------5-------7---------------|
D|-------------------------------------------------------------------------|
A|---------7-------------------------------7-------------------------------|
E|-8---------------5-------7-------8---------------5-------7---------[x2]--|

e|-------3-----------------------------------------------------------------|
B|---1-3-------------------------------------------------------------------|
G|-0-----------------------------------------------------------------------|
D|-2-----------------------------------------------------------------------|
A|-2-----------------------------------------------------------------------|
E|-------------------------------------------------------------------------|
Related for Until The Day I Die tab