Guitaretab - guitar tabs
Song name
# A B C D E F G H I J K L M N O P Q R S T U V W X Y Z

Luna Sea - I For You tab

intro
Am F Am F
   Am         F           Am       F
e|-------3--------3-----0------0-------------|
B|-0-1-0---1-0--1---1-3---1--3---------------|
G|--------------------------------1h2--------|


G Am 	    G 	      F  Am       G   
      F
    nee hontou wa daremo   nee aisenai to iiwarete
  Am         G            F  Am         G   
      F
    kowagari no KIMI to deai   yatto sono imi ni kizuita
  Dm      Em        F         Dm         Em 
 F            G
    kizutsuku tame ima futari   deatta nara kanashi sugiru yo

        C    E Am      F     E    Am
    kokoro kara   KIMI ni tsutaetai ...
       F    E    Am        F	        G          F
    kitto tada hontou no KIMI no sugata wo mo tomete
mini riff
e|-------3----------3----|
B|-0-1-0---1--0--1-------|

G Am         G          F    Am         
         F
    mada bukiyou ni warau ne mada kanashimi ga niau kara
  Dm        Em     F             Dm     Em  
    F         G
    KIMI to deau tame dake ni sou  umareta nara kaerareru kana ...


        C    E Am      F     E   Am
    kokoro kara  KIMI ni tsutaetai
        F      E  Am         F	          G
    kizutsuki sugita kedo mada aida ni au yo
        C    E Am      F     E   Am
    kokoro kara  KIMI wo aishiteru
         F    E    Am        F	     G
    KIMI ni furu itami wo futte agetai subete
[ Tab from: http://www.guitaretab.com/l/luna-sea/60005.html ]
break
   F        G               F       G
-|---------------------------------------------|
-|----------------------------------88-8-88-8--|
-|-99-9-2-2-9-9-7-7-5-5-7-7-9-9-2-2------------| repeat twice
-|---------------------------------------------|
-|---------------------------------------------|
-|---------------------------------------------|
   F                       G		            F	       G
-|--------------------------------------------------------15~-----------------|
-|-------------------------8-8-8--------------------12-13-----/13-12----------|
-|-9-9-9-7-7-7-------------------101010-9-9-7-7-7--------------------12-------|
-|-------------101010-9-9-9-----------------------9---------------------12----|
-|----------------------------------------------------------------------------|
-|----------------------------------------------------------------------------|

   F			    G                        F           G
-|-----------------------12---------------/17-18-20-22~-20-22~-----------------|
-|-----------15p13p12h13----15~-12h13-12~----------------------/13-/12-/13-/15-|
-|--------12-------------------------------------------------------------------|
-|-9-9-10----------------------------------------------------------------------|
-|-----------------------------------------------------------------------------|
-|-----------------------------------------------------------------------------|

        C    E Am      F     E   Am
    kokoro kara  KIMI ni tsutaetai
         F     E  Am        F          G
    KIMI no egao itsumo mitsumerareta nara
        C    E Am      F     E   Am
    kokoro kara  KIMI wo aishiteru
         F    E    Am        F	     G          F
    KIMI ni furu hikari wo atsumeru agetai subete
G F G
    I for You
F G F G G

outro
  C          F            Am     F
e|-------3--------3-----0------0----------------|
B|-0-1-0---1-0--1---1-3---1--3---1--------------|
G|----------------------------------------------|

  Am         F            Am      F       G  C
e|-------3--------3-----0------0----------------|
B|---1-0---1-0--1---1-3---1--3---------1--0--1--|
G|--------------------------------1h2-----------|
Related for I For You tab
I For You chords by Luna Sea