Song name
# A B C D E F G H I J K L M N O P Q R S T U V W X Y Z

Luna - This Time Around tab

Luna "This Time Around"

Intro-

Am-C-Am-C-Am-G-Am-G-Am

e------------------------------------------|
B------------------------------------------|
G-12---10---9---10---10---10---9-----------|         2 times
D-10---10---10--10---10---10---10----------|
A------------------------------------------|
E------------------------------------------|

e-----------------------10---12---10-------------10---12---10------|
B--------------------13--------------13-------13--------------13---|
G--------------10h12-------------------12--12-------------------12-|
D--------10h12-----------------------------------------------------|
A--10h12-----------------------------------------------------------|
E------------------------------------------------------------------|

Verse-

C-Am-C-Am-G-Am-G-Am

Chrous-

C-G-F-G-Am-G-F-G

(repeat intro)

(repeat verse 2x)

(repeat chorus 2x)

then the solo, sorry i haven't tabbed that yet

(chorus one last time)

by: Ray Palena
Tap to rate this tab
# A B C D E F G H I J K L M N O P Q R S T U V W X Y Z