Song name
# A B C D E F G H I J K L M N O P Q R S T U V W X Y Z

Lunachicks - Donuts tab

Artist: Lunachicks
Song Title: Mmm Donuts
Album: Pretty Ugly


Riff 1
-------------------------------------------------|
-------------------------------------------------|
-------------------------------------------------|
-------------------------------------------------|
--------2---------------------2------------------|
---3/4----3-4-3h4p3-0-3---3/4----3-4-3h4p3-0-0---|

Riff 2
--------------------------------------------------|
--------------------------------------------------|
--------------------------------------------------|
---4-4-4-----------4-4----------------------------|
---4-4-4------2----4-4--4-4p2---------------------|
---2-2-2--3/4---3--2-2---------4-3-0--------------|

Tabbed by BaDKiTTie, based on a tab I found at
www.geocities.com/lunatabs. I didn't think the original
for this particular one was correct but you should check
out the site - there are great tabs for almost every
Lunachicks song possible.
Tap to rate this tab
# A B C D E F G H I J K L M N O P Q R S T U V W X Y Z