Guitaretab - guitar tabs
Song name
# A B C D E F G H I J K L M N O P Q R S T U V W X Y Z

Lunatic Asylum - Youre The Only One I Want tab

You're the only one i want-Lunatic Asylum

INTRO:
------------------------------------------------------------------------|
------------------------------------------------------------------------|
-6-6-6-6-6-6-6-6-4-4-4-4-4-4-4-4-8-8-8-8-8-8-8-8-6-6-6-6-6-6-6-6--------|
-6-6-6-6-6-6-6-6-4-4-4-4-4-4-4-4-8-8-8-8-8-8-8-8-6-6-6-6-6-6-6-6--------|
-4-4-4-4-4-4-4-4-2-2-2-2-2-2-2-2-6-6-6-6-6-6-6-6-4-4-4-4-4-4-4-4--------|
------------------------------------------------------------------------|

CHORUS:
------------------------------------------------------------------------|
------------------------------------------------------------------------|
------------------------------------------------------------------------|
-4--6--8--4--6--8--6--4--4--6--8--4--6--8--6--4---6---------------------|
-2--4--6--2--4--6--4--2--2--4--6--2--4--6--4--2---4---------------------|
------------------------------------------------------------------------|

[ Tab from: http://www.guitaretab.com/l/lunatic-asylum/109907.html ]
VERSE:
-------------------------------------------------------------------------|
-------------------------------------------------------------------------|
-------------------------------------------------------------------------|
-------------------------------------------------------------------------|
-6-6-6-6-6-6-8-8-6-6-6-6-6-8-8-6-6-6-6-6-6-8-8-6-6-6-6-6-6-4-4--- Play 2-|
-4-4-4-4-4-4-6-6-4-4-4-4-4-6-6-4-4-4-4-4-4-6-6-4-4-4-4-4-4-2-2-----------|Times


SOLO:
-9-11-13--9-11-13-11-9--9-11-13--9-11-13-11-9--11-------------------|
--------------------------------------------------------------------|
--------------------------------------------------------------------|
--------------------------------------------------------------------|
--------------------------------------------------------------------|
---3-3-5-5-5-5-7-7-7-7-9-9-9-9---x8---------------------------------|


SOLO CONTINUED:
---------------------------------------------------------------------|
-11-11-11-11-11-11-14-11-11-11-11-11-11-10---------------------------|Play three
------------------------------------------11--------------times------|
---------------------------------------------------------------------|
---------------------------------------------------------------------|
---------------------------------------------------------------------|


End:
--------------------------------------------------------------------|
--------------------------------------------------------------------|
--------------------------------------------------------------------|
--------------------------------------------------------------------|
--------------------------------------------------------------------|
-7-7-7-7-7--5-3-----------------------------------------------------|


Hope you enjoy it Frank!
Related for Youre The Only One I Want tab