Song name
# A B C D E F G H I J K L M N O P Q R S T U V W X Y Z

Lunatic Soul - Near Life Experience tab

Lunatic Soul - Near Life Experience
===================================

(feel free to jam any other riffs over A minor during the piano parts)

[Riff 1]
e|-----------------------------------------------------------------------|
B|-----------------------------------------------------------------------|
G|-----------------------------------------------------------------------|
D|----7-7---7h9-9------------------7-------------------------------------|
A|--7-----7----7--10--7-10-10-7-10---7-----------------------------------|
E|-----------------------------------------------------------------------|

e|-----------------------------------------------------------------------|
B|-----------------------------------------------------------------------|
G|-----------------------------------------------------------------------|
D|----7-7---7h9-9------------------7-------------------------------------|
A|--7-----7----7--10--7-10-10-7-10---10-7--------------------------------|
E|-----------------------------------------------------------------------|

e|-----------------------------------------------------------------------|
B|-----------------------------------------------------------------------|
G|-----------------------------------------------------------------------|
D|----7-7---7h9-9------------------7-7-----------------------------------|
A|--7-----7----7--10--7-10-10-7-10---------------------------------------|
E|-----------------------------------------------------------------------|

e|-----------------------------------------------------------------------|
B|-----------------------------------------------------------------------|
G|-----------------------------------------------------------------------|
D|----7-7---7h9-9------------------7-------------------------------------|
A|--7-----7----7--10--7-10-10-7-10---10-7--------------------------------|
E|-----------------------------------------------------------------------|


[Riff 2]
e|-----------------------------------------------------------------------|
B|-----------------------------------------------------------------------|
G|--------------------------------(4x)-----------------------------------|
D|-----------------------------------------------------------------------|
A|--7--------------------------------------------------------------------|
E|----8s10-10s12--------5---5--------------------------------------------|


[Riff 3]
e|-----------------------------------------------------------------------|
B|-----------------------------------------------------------------------|
G|-----------------------------------------------------------------------|
D|-----10-10----10h12--12-9-----9-9----9h10--10--------------------------|
A|--10-------10------10------10-----10-----10----------------------------|
E|-----------------------------------------------------------------------|

e|-----------------------------------------------------------------------|
B|-----------------------------------------------------------------------|
G|-----------------------------------------------------------------------|
D|-----10-10----10h12--12-9-----9-9----9h10-9----------------------------|
A|--10-------10------10------10-----10--------10-------------------------|
E|-----------------------------------------------------------------------|

[Riff 2]
e|-----------------------------------------------------------------------|
B|-----------------------------------------------------------------------|
G|--------------------------------(4x)-----------------------------------|
D|-----------------------------------------------------------------------|
A|--7--------------------------------------------------------------------|
E|----8s10-10s12--------5---5--------------------------------------------|


[Piano solo]
(play here anything from the Am pentatonic on first 4 strings)
e|--x-----x--------------------------------------------------------------|
B|--x-----x--------------------------------------------------------------|
G|--5---7----------------------------------------------------------------|
D|--5---7----------------------------------------------------------------|
A|--5---7----------------------------------------------------------------|
E|--5-----8--------------------------------------------------------------|


[Piano "riff" 1]
e|-----------------------------------------------------------------------|
B|-----------------------------------------------------------------------|
G|-----------------------------------------------------------------------|
D|--10----9-10-----9-----------------------------------------------------|
A|-----12------------10-12-----------------------------------------------|
E|-------------------------12--------------------------------------------|

e|-----------------------------------------------------------------------|
B|-----------------------------------------------------------------------|
G|-----------------------------------------------------------------------|
D|--10----9-10-----9-----------------------------------------------------|
A|-----12------------10--------------------------------------------------|
E|----------------------12-----------------------------------------------|

e|-----------------------------------------------------------------------|
B|-----------------------------------------------------------------------|
G|-----------------------------------------------------------------------|
D|--10----9-10-----9-----------------------------------------------------|
A|-----12------------10-12-----------------------------------------------|
E|-------------------------12--------------------------------------------|
Tap to rate this tab
 
# A B C D E F G H I J K L M N O P Q R S T U V W X Y Z