Guitaretab - guitar tabs
Song name
# A B C D E F G H I J K L M N O P Q R S T U V W X Y Z

Lunik - Most Beautiful Song tab

-------------------------------------------------------------------------------
                      THE MOST BEAUTIFUL SONG - Lunik
-------------------------------------------------------------------------------
Tabbed by: käspi
Email: kg@kgmw.ch

Tuning: Standard
[ Tab from: http://www.guitaretab.com/l/lunik/62764.html ]
e|---------------------------------------------------------------------------|
B|------------7-8-7----------------------------------------------------------|
G|-----7---/9------------7---/9-7--------------------------------------------|
D|-7h9---9-----------7h9---9------9\7-5--------------------------------------|
A|--------------------------------------7------------------------------------|
E|---------------------------------------------------------------------------|

e|--------------------------------------10-----------------------------------|
B|-----------------------------------12----12-10\8---------------------------|
G|-----7---/9-/11-12-11-9h11h12p11p9---------------9-------------------------|
D|-7h9---9-------------------------------------------------------------------|
A|---------------------------------------------------------------------------|
E|---------------------------------------------------------------------------|

| /  slide up
| \  slide down
| h  hammer-on
| p  pull-off
===============================================================================
Related for Most Beautiful Song tab