Song name
# A B C D E F G H I J K L M N O P Q R S T U V W X Y Z

Lunikoff - Geweint Wird Wenn Der Kopp Ab Is tab

strophen
---------------------------------------------------|
---------------------------------------------------|
--------------------------------------------5------|
--7--x-x-x-7---7--x-x-x-7---7--x-x-x-7---5--5------|
--7--x-x-x-7---7--x-x-x-7---7--x-x-x-7---5--3------|
--5--x-x-x-5---5--x-x-x-5---5--x-x-x-5---3--3------|


ref.
-------------------------------------------------------------------|
-------------------------------------------------------------------|
-----------------5-5--x-x-x-x---10-10--x-x-x-x---9-9--x-x-x-x------|
--5-5--x-x-x-x---5-5--x-x-x-x---10-10--x-x-x-x---9-9--x-x-x-x------|
--5-5--x-x-x-x---3-3--x-x-x-x---8--8---x-x-x-x---7-7--x-x-x-x------|
--7-7--x-x-x-x-----------------------------------------------------|
Tap to rate this tab
 
# A B C D E F G H I J K L M N O P Q R S T U V W X Y Z