Lunikoff - Deutsche Wut tab

Strophen
---------------------------|
---------------------------|
--------------------3------|
--5-5---5-5---5-5---3---3--|
--5-5---5-5---5-5---1---3--|
--3-3---3-3---3-3---1---1--|


Refrein
-----------------------------------------------------|
-----------------------------------------------------|
---------------3--x-x-x-x----------------5--x-x-x-x--|
--5--x-x-x-x---3--x-x-x-x---3--x-x-x-x---5--x-x-x-x--|
--5--x-x-x-x---1--x-x-x-x---3--x-x-x-x---3--x-x-x-x--|
--3--x-x-x-x---1--x-x-x-x---1--x-x-x-x---3--x-x-x-x--|
Tap to rate this tab
 
# A B C D E F G H I J K L M N O P Q R S T U V W X Y Z