Song name
# A B C D E F G H I J K L M N O P Q R S T U V W X Y Z

Luniz - I Got 5 On It tab

Bass Line Part A

G-----------------------------------------]
D-----------------------------------------]
A---1-1-----1-1-----1-1-----1-1-----------]
E-1-------1-------1-------1-------1-4-4---]

Bass Line Part B

G-----------------------------------------]
D-----------------------------------------]
A-----------------------------------------]
E-1-2-2---1-2-2---1-2-2---1-2-2---1-4-4---]


Melody Part A

e-9----8------9----8~----9----8------9----8----------------]
B---------------------------------------------9----11------]
G---10---8~-----10---------10---8~-----10-------10---------]
D----------------------------------------------------------]
A----------------------------------------------------------]
E----------------------------------------------------------]

Melody Part B 

e-6---4-----6---4~----6---4-----6---4-----4-6----------]
B---------------------------------------6--------------]
G---6---5~----6---------6---5~----6--------------------]
D------------------------------------------------------]
A------------------------------------------------------]
E------------------------------------------------------]


There ya go!

Tabbed by: Jared Scherer
FEED GOD CABBAGE 
Tap to rate this tab
# A B C D E F G H I J K L M N O P Q R S T U V W X Y Z