Song name
# A B C D E F G H I J K L M N O P Q R S T U V W X Y Z

Lupe Fiasco - Shining Down tab

e |-1-------1-------1-------1-------1-------1|	  			   
B |---3-------3-------3-------3-------3------|	  			   
G |-----2-------2-------2-------2-------2----|
D |------------------------------------------|
A |------------------------------------------|
E |------------------------------------------|


e |-0-------0-------0----------------------------|	  
B |---1-------1-------1-------3-------3-------3--|	  
G |-----2-------2-------2-------4-------4-------4|
D |-------------------------------5-------5------|
A |----------------------------------------------|
E |----------------------------------------------|

>:)
Tap to rate this tab
 
# A B C D E F G H I J K L M N O P Q R S T U V W X Y Z