Song name
# A B C D E F G H I J K L M N O P Q R S T U V W X Y Z

Lupe Fiasco - I Gotcha tab

I Gotcha - Lupe Fiasco
2 guitars


e-----------------------------------------------------||
b--6-----------8------------9------------11-----------||
g--8-----------10-----------7------------9------------||
d--8-----------10-----------9------------11-----------||
a--6-----------8------------7------------9------------||
E--6-----------8--------------------------------------||
                                                      ||
e--x-----------x------------x------------x-14------12-||
b--x-----------x------9-----x------10----x---15-12----||
g--x------8----x---10-------x---9--------x------------||
d--x---9-----9-x-11------13-x-10------12-x------------||
a--x-7---------x------------x------------x------------||
E--x-----------x------------x------------x------------||



e-----------------------------------------------------||
b-----------------------------------------------------||
g--8~~------------------------------------------------||
d--9~~------------------------------------------------||
a--6~~------------------------------------------------||
E--7~~------------------------------------------------||
                                                      ||
e-----------------------------------------------------||
b-----------------------------------------------------||
g--8~~------------------------------------------------||
d--9~~------------------------------------------------||
a--6~~------------------------------------------------||
E--7~~------------------------------------------------||
Tap to rate this tab
 
# A B C D E F G H I J K L M N O P Q R S T U V W X Y Z