Lupe Fiasco - The Show Goes On tab

-------------------------------------------------------------------------------
			     The Show Goes On - Lupe Fiasco
-------------------------------------------------------------------------------
Tabbed by: PappaDan

Tuning: Standard

This is how you can play the riff if you don't that echo effect for your guitar.

e|-----7--10------------7-7-7------------------------------------------------|
B|--8--------8-10-8-10-------------------------------------------------------|
G|---------------------------------------------------------------------------|
D|---------------------------------------------------------------------------|
A|---------------------------------------------------------------------------|
E|---------------------------------------------------------------------------|

Violin riff

e|----------------10---12-------------------------10----12-------------------|
B|-------10---12------------12----------10---12--------------12\10-----------|
G|---12-----------------------------12---------------------------------------|
D|---------------------------------------------------------------------------|
A|---------------------------------------------------------------------------|
E|---------------------------------------------------------------------------|
Tap to rate this tab
 
# A B C D E F G H I J K L M N O P Q R S T U V W X Y Z