Lupe Fiasco - Words I Never Said chords

Just strum the chords according to the song. It's not too hard so have fun.



e|---------------6---6----|
b|--0-------11---7---6----|
g|--11------11---8---6----|
d|--9-------11---8---6----|
a|--11------9----6---4----|
E|------------------------|


e|---------------6---6----|
b|--0-------11---7---6----|
g|--11------11---8---6----|
d|--9-------11---8---6----|
a|--11------9----6---4----|
E|------------------------|


e|---------------6---6----|
b|--0-------11---7---6----|
g|--11------11---8---6----|
d|--9-------11---8---6----|
a|--11------9----6---4----|
E|------------------------|


Jason J.
Tap to rate this tab
 
# A B C D E F G H I J K L M N O P Q R S T U V W X Y Z