Song name
# A B C D E F G H I J K L M N O P Q R S T U V W X Y Z

Lupe Fiasco - Kick Push tab

-------------------------------------------------------------------------------
	                       Kick, Push - Lupe Fiasco
-------------------------------------------------------------------------------
Tabbed by:Sound Mind
Email:kagenecros@hotmail.com

Tuning:Standard

e|---------------------------------------------------------------------------|
B|---------------------------------------------------------------------------|
G|9----7-12----9-------------------------------------------------------------|
D|9----7-12----9-------------------------------------------------------------|
A|7----5-10----7-------------------------------------------------------------|
E|---------------------------------------------------------------------------|

e|---------------------------------------------------------------------------|
B|---------------------------------------------------------------------------|
G|9----7-12----9-------------------------------------------------------------|
D|9----7-12----9-------------------------------------------------------------|
A|7----5-10----7-------------------------------------------------------------|
E|---------------------------------------------------------------------------|

That's it. This is a really good song, I think it's cool that there are still 
some conscious rappers out there. Anyways don't forget to let the first E5(997) 
and the G5(12-12-10) chords ring. Peace.

http://lupefiasco.com/

| /  slide up
| \  slide down
| h  hammer-on
| p  pull-off
| ~  vibrato
| +  harmonic
| x  Mute note
===============================================================================
Tap to rate this tab
# A B C D E F G H I J K L M N O P Q R S T U V W X Y Z