Song name
# A B C D E F G H I J K L M N O P Q R S T U V W X Y Z

Lupen Crook - Shake Baby Shake tab

This is the intro...


e------x-----x-----x-----x-----x-----x-----x---3-------|
B------x-----x-----x-----x-----x-----x-----x-----------|
G--12--x--11-x--9--x--7--x--5--x--7--x--5--x-----------|
D------x-----x-----x-----x-----x-----x-----x-----------|
A--10--x--9--x--7--x--5--x--3--x--5--x--3--x---2-------|
E------x-----x-----x-----x-----x-----x-----x---3-------|


G
The kid was only trying

Am
There's no need to shout

        G
Cos the kid was only trying

Am
Shake Baby Shake

                      G
Shake all those blues away


The xylophone bit arranged for guitar...

e----3---5---7---------------------------------|
B----------------------------------------------|
G----------------------------------------------|
D----------------------------------------------|
A----------------------------------------------|
E----------------------------------------------|

G
If God speed
Am
Your broken Heart
G
For you dear
Am
Oceans part
G
It's all he needs
Am
And all you've got

Shake Baby Shake
                      G
Shake all those blues away

The xylophone bit arranged for guitar...

e----3---5---7-----7--8--7--5----3----0--------|
B----------------------------------------------|
G----------------------------------------------|
D----------------------------------------------|
A----------------------------------------------|
E----------------------------------------------|


Guitar during Xylophone...

G then Am

http://www.lupencrook.co.uk/

                   G
And He will always land up face down

Am
Screaming at the sky

G
Well he will always land up face down

Am
Trying not to cry

G
If God speed
Am
Your broken Heart
G
For you dear
Am
Oceans part
G
It's all he needs
Am
And all you've got

Shake Baby Shake
                      G
Shake all those blues away.


Am
Shake Baby Shake
                      G
Shake all those blues away.

Then there is a huge xylophone bit I can't grasp. Though the guitar keeps at the same 
throughout until the heavy bit, which is the intro repeated.


I think the bass during the heavy bit is a mixture of a Gs and Es then the guitar 
back to the intro again.

Hopefully that has been helpful. It's very rough.


Corrections most welcome!
Tap to rate this tab
 
# A B C D E F G H I J K L M N O P Q R S T U V W X Y Z