Song name
# A B C D E F G H I J K L M N O P Q R S T U V W X Y Z

Lupen Crook - Lucky 6 tab

finally got round to doing this!

Standard tuning. Song based around A, Bb, Dm and E.
And some other chords. No attempt made to figure out the timing
of the song so just listen to it and it should make sense.

e-----------0-----------------------------------------------------|
B-----------2-----------------------------------------------------|
G-----------0-----------------------------------------------------|
D-----------2-----------------------------------------------------|
A-----------0-----------------------------------------------------|
E-----------------------------------------------------------------|
You been losing weight in all the wrong places

e-----1-----------------------------------------------------------|
B-----3-----------------------------------------------------------|
G-----2-----------------------------------------------------------|
D-----0-----------------------------------------------------------|
A-----------------------------------------------------------------|
E-----------------------------------------------------------------|
You know you've been fucked but you can't see their faces,

e--0----------------------x-1-1-x-------0-------0------0-----------|
B--2----------------------x-3-3-x-------2-------0------0-----------|
G--2----------------------x-3-3-x-----2-2-------1------1-----------|
D--2----------------------x-3-3-x---0-2-2-------2------2-----------|
A--0----------------------x-1-1-x---0-0-0-------2------2-----------|
E-------------------------x-1-1-x-----------3-2-0---3b-0-----------|
Where's your Lucky 6?                                    Is it with

e--------------------0-----------x-1-1-x-------0--------------------|
B--------------------2-----------x-3-3-x-------2--------------------|
G------------------2-2-----------x-3-3-x-----2-2--------------------|
D----------------0-2-2-----------x-3-3-x---0-2-2--------------------|
A----------------0-0-0-----------x-1-1-x---0-0-0--------------------|
E--------------------------------x-1-1-x----------------------------|
a silver lining?       ah oh oh,                  ah oh oh he wants

e--------1-x-1-1-x-x-1-x-1-1-x-x--------0-0-0-0-0-0-0--x-1-1-x------0-----|
B--------3-x-3-3-x-x-3-x-3-3-x-x--------2-2-2-2-2-2-2--x-3-3-x------2-----|
G--------2-x-2-2-x-x-2-x-2-2-x-x------0-2-2-2-2-2-2-2--x-3-3-x----0-2-----|
D--------0-x-0-0-x-x-0-x-0-0-x-x------2-2-2-2-2-2-2-2--x-3-3-x--0-2-2-----|
A-------------------------------------0-0-0-0-0-0-0-0--x-1-1-x--0-0-0-----|
E------------------------------------------------------x-1-1-x------------|
to know.                          Why your lucky 6?

e------------0---------------------------0----------------------------|
B------------0---------------------------0----------------------------|
G------------1---------------------------1----------------------------|
D------------2---------------------------2----------------------------|
A------------2---------------------------2----------------------------|
E----3-2-----0---------------------------0----------------------------|
       Cause I am not alone in this, I swear the voice I heard it said

e----0-x-0-0-x-0-0----x-1-1-x---0-x-0-0-x-0-0-------------------------|
B----2-x-2-2-x-2-2----x-3-3-x---2-x-2-2-x-2-2-------------------------|
G----2-x-2-2-x-2-2----x-3-3-x---2-x-2-2-x-2-2-------------------------|
D----2-x-2-2-x-2-2----x-3-3-x---2-x-2-2-x-2-2-------------------------|
A----0-x-0-0-x-0-0----x-1-1-x---0-x-0-0-x-0-0-------------------------|
E---------------------x-1-1-x-----------------------------------------|
It felt the same,     oh just      like I said

e------1-x-1-1-x-1-x-1-1-x----------0-x-x-0-0---------------------|
B------3-x-3-3-x-3-x-3-3-x--------2-2-x-x-2-2---------------------|
G------2-x-2-2-x-2-x-2-2-x------0-2-2-x-x-2-2--(tap tap tap)------|
D------0-x-0-0-x-0-x-0-0-x------2-2-2-x-x-2-2---------------------|
A-------------------------------0-0-0-x-x-0-0---------------------|
E-----------------------------------------------------------------|
That's why you'll never catch my name.


(musical interlude bit)
e-----------------------------------------------------------------|
B-----------------------------------------------------------------|
G-----------------------------------------------------------------|
D---8-x-7/8-x-5---8-x-7/8-x-5--12-x-10/12-x-10/12-x-12-12--10-10--|
A---x-x-x-x-x-x---x-x-x-x-x-x--x--x-x--x--x-x--x--x-x--x---x--x---|
E---6-x-5/6-x-3---6-x-5/6-x-3--10-x-8/10--x-8/10--x-10-10--8--8---|

-----------------------------------------------------------------|
-----------------------------------------------------------------|
-----------------------------------------------------------------|
---8-x-7/8-x-5--8-x-7/8-x-8--7-7-7-7-7-7-7-7-7-7-7-7-7-7-7-7-----|
---x-x-x-x-x-x--x-x-x-x-x-x--x-x-x-x-x-x-x-x-x-x-x-x-x-x-x-x-----|
---6-x-5/6-x-3--6-x-5/6-x-6--5-5-5-5-5-5-5-5-5-5-5-5-5-5-5-5-----|

e----5-x-5-5-5--5-x-5-5-5--5-x-5-5-5--5-x-5-5-5--|
B----6-x-6-6-6--6-x-6-6-6--6-x-6-6-6--6-x-6-6-6--|
G----7-x-7-7-7--7-x-7-7-7--7-x-7-7-7--7-x-7-7-7--|
D----7-x-7-7-7--7-x-7-7-7--7-x-7-7-7--7-x-7-7-7--|
A----5-x-5-5-4--5-x-5-5-4--5-x-5-5-4--5-x-5-5-4--|
E----5-x-5-5-x--5-x-5-5-x--5-x-5-5-x--5-x-5-5-x--|
He wants to know if he really does

e-----5-x-5-5-1--5-x-5-5-1--5-x-5-5-1--5-x-5-5-1--|
B-----5-x-5-5-3--5-x-5-5-3--5-x-5-5-3--5-x-5-5-3--|
G-----6-x-6-6-3--6-x-6-6-3--6-x-6-6-3--6-x-6-6-3--|
D-----7-x-7-7-3--7-x-7-7-3--7-x-7-7-3--7-x-7-7-3--|
A-----7-x-7-7-1--7-x-7-7-1--7-x-7-7-1--7-x-7-7-1--|
E-----5-x-5-5-1--5-x-5-5-1--5-x-5-5-1--5-x-5-5-1--|
My advice was to kill the one he thinks he loves,

e----5-x-5-5-5--5-x-5-5-5--5-x-5-5-5--5-x-5-5-5--|
B----6-x-6-6-6--6-x-6-6-6--6-x-6-6-6--6-x-6-6-6--|
G----7-x-7-7-7--7-x-7-7-7--7-x-7-7-7--7-x-7-7-7--|
D----7-x-7-7-7--7-x-7-7-7--7-x-7-7-7--7-x-7-7-7--|
A----5-x-5-5-4--5-x-5-5-4--5-x-5-5-4--5-x-5-5-4--|
E----5-x-5-5-x--5-x-5-5-x--5-x-5-5-x--5-x-5-5-x--|
Because a broken heart is one you can trust

e----5-----------------------------1--------5-5-5-5---|
B----5-----------------------------3--------6-6-6-6---|
G----6-----------------------------3--------7-7-7-7---|
D----7-----------------------------3--------7-7-7-7---|
A----7-----------------------------1--------5-5-5-5---|
E----5-----------------------------1--------5-5-5-5---|
For sure when she's dead you will know it's true (start palm-muting)

e---12-12-12-12-----6-6-6-6-----------5-5-5-5--|
B---14-14-14-14-----6-6-6-6-----------5-5-5-5--|
G---14-14-14-14-----7-7-7-7-----------6-6-6-6--|
D---14-14-14-14-----8-8-8-8-----------7-7-7-7--|
A---12-12-12-12-----8-8-8-8-----------7-7-7-7--|
E---12-12-12-12-----6-6-6-6-----------5-5-5-5--|
    love,     that  kills you in the  end,

e----5-5-5-5----12-12-12-12--|
B----6-6-6-6----14-14-14-14--|
G----7-7-7-7----14-14-14-14--|
D----7-7-7-7----14-14-14-14--|
A----5-5-5-5----12-12-12-12--|
E----5-5-5-5----12-12-12-12--|
It's true    my love,

e----------------6-6-----5-5-5-5-5-5-5-5--|
B----------------6-6-----5-5-5-5-5-5-5-5--|
G----------------7-7-----6-6-6-6-6-6-6-6--|
D----------------8-8-----7-7-7-7-7-7-7-7--|
A----------------8-8-----7-7-7-7-7-7-7-7--|
E----------------6-6-----5-5-5-5-5-5-5-5--|
I caught you     playing dead.

e-----5-x-5-5-1--5-x-5-5-1--5-x-5-5-1--5-x-5-5-1--|
B-----5-x-5-5-3--5-x-5-5-3--5-x-5-5-3--5-x-5-5-3--|
G-----6-x-6-6-3--6-x-6-6-3--6-x-6-6-3--6-x-6-6-3--|
D-----7-x-7-7-3--7-x-7-7-3--7-x-7-7-3--7-x-7-7-3--|
A-----7-x-7-7-1--7-x-7-7-1--7-x-7-7-1--7-x-7-7-1--|
E-----5-x-5-5-1--5-x-5-5-1--5-x-5-5-1--5-x-5-5-1--|
                                       We are only

e----5-x-5-5-5--5-x-5-5-5--5-x-5-5-5--5-x-5-5-5--|
B----6-x-6-6-6--6-x-6-6-6--6-x-6-6-6--6-x-6-6-6--|
G----7-x-7-7-7--7-x-7-7-7--7-x-7-7-7--7-x-7-7-7--|
D----7-x-7-7-7--7-x-7-7-7--7-x-7-7-7--7-x-7-7-7--|
A----5-x-5-5-4--5-x-5-5-4--5-x-5-5-4--5-x-5-5-4--|
E----5-x-5-5-x--5-x-5-5-x--5-x-5-5-x--5-x-5-5-x--|
trying,                                trying to make

e-----5-x-5-5-1--5-x-5-5-1--5-x-5-5-1--5-x-5-5-1--|
B-----5-x-5-5-3--5-x-5-5-3--5-x-5-5-3--5-x-5-5-3--|
G-----6-x-6-6-3--6-x-6-6-3--6-x-6-6-3--6-x-6-6-3--|
D-----7-x-7-7-3--7-x-7-7-3--7-x-7-7-3--7-x-7-7-3--|
A-----7-x-7-7-1--7-x-7-7-1--7-x-7-7-1--7-x-7-7-1--|
E-----5-x-5-5-1--5-x-5-5-1--5-x-5-5-1--5-x-5-5-1--|
decisions,                             about where the hell you

e----5-x-5-5-5--5-x-5-5-5--5-x-5-5-5--5-x-5-5-5--|
B----6-x-6-6-6--6-x-6-6-6--6-x-6-6-6--6-x-6-6-6--|
G----7-x-7-7-7--7-x-7-7-7--7-x-7-7-7--7-x-7-7-7--|
D----7-x-7-7-7--7-x-7-7-7--7-x-7-7-7--7-x-7-7-7--|
A----5-x-5-5-4--5-x-5-5-4--5-x-5-5-4--5-x-5-5-4--|
E----5-x-5-5-x--5-x-5-5-x--5-x-5-5-x--5-x-5-5-x--|
got those Irish eyes.                  Your spider leg lashes and your

e-----5-x-5-5-1--5-x-5-5-1--5-x-5-5-1--5-x-5-5-1--|
B-----5-x-5-5-3--5-x-5-5-3--5-x-5-5-3--5-x-5-5-3--|
G-----6-x-6-6-3--6-x-6-6-3--6-x-6-6-3--6-x-6-6-3--|
D-----7-x-7-7-3--7-x-7-7-3--7-x-7-7-3--7-x-7-7-3--|
A-----7-x-7-7-1--7-x-7-7-1--7-x-7-7-1--7-x-7-7-1--|
E-----5-x-5-5-1--5-x-5-5-1--5-x-5-5-1--5-x-5-5-1--|
Transylvanian smile.                   Oh, I wanna see them

e----5-x-5-5-5--5-x-5-5-5--5-x-5-5-5--5-x-5-5-5--|
B----6-x-6-6-6--6-x-6-6-6--6-x-6-6-6--6-x-6-6-6--|
G----7-x-7-7-7--7-x-7-7-7--7-x-7-7-7--7-x-7-7-7--|
D----7-x-7-7-7--7-x-7-7-7--7-x-7-7-7--7-x-7-7-7--|
A----5-x-5-5-4--5-x-5-5-4--5-x-5-5-4--5-x-5-5-4--|
E----5-x-5-5-x--5-x-5-5-x--5-x-5-5-x--5-x-5-5-x--|
crying, crawling, incy wincy sleeping people's

e-----5-x-5-5-1--5-x-5-5-1--5-x-5-5-1--5-x-5-5-1--|
B-----5-x-5-5-3--5-x-5-5-3--5-x-5-5-3--5-x-5-5-3--|
G-----6-x-6-6-3--6-x-6-6-3--6-x-6-6-3--6-x-6-6-3--|
D-----7-x-7-7-3--7-x-7-7-3--7-x-7-7-3--7-x-7-7-3--|
A-----7-x-7-7-1--7-x-7-7-1--7-x-7-7-1--7-x-7-7-1--|
E-----5-x-5-5-1--5-x-5-5-1--5-x-5-5-1--5-x-5-5-1--|
bawling,                               Where's your Lucky 6?!

e----5-x-5-5-5--5-x-5-5-5--5-x-5-5-5--5-x-5-5-5--|
B----6-x-6-6-6--6-x-6-6-6--6-x-6-6-6--6-x-6-6-6--|
G----7-x-7-7-7--7-x-7-7-7--7-x-7-7-7--7-x-7-7-7--|
D----7-x-7-7-7--7-x-7-7-7--7-x-7-7-7--7-x-7-7-7--|
A----5-x-5-5-4--5-x-5-5-4--5-x-5-5-4--5-x-5-5-4--|
E----5-x-5-5-x--5-x-5-5-x--5-x-5-5-x--5-x-5-5-x--|

e-----5-x-5-5-1--5-x-5-5-1--5-x-5-5-1--5-x-5-5-1--|
B-----5-x-5-5-3--5-x-5-5-3--5-x-5-5-3--5-x-5-5-3--|
G-----6-x-6-6-3--6-x-6-6-3--6-x-6-6-3--6-x-6-6-3--|
D-----7-x-7-7-3--7-x-7-7-3--7-x-7-7-3--7-x-7-7-3--|
A-----7-x-7-7-1--7-x-7-7-1--7-x-7-7-1--7-x-7-7-1--|
E-----5-x-5-5-1--5-x-5-5-1--5-x-5-5-1--5-x-5-5-1--|
                                      Love your Lucky 6.

e----5-x-5-5-5--5-x-5-5-5--5-x-5-5-5--5-x-5-5-5--|
B----6-x-6-6-6--6-x-6-6-6--6-x-6-6-6--6-x-6-6-6--|
G----7-x-7-7-7--7-x-7-7-7--7-x-7-7-7--7-x-7-7-7--|
D----7-x-7-7-7--7-x-7-7-7--7-x-7-7-7--7-x-7-7-7--|
A----5-x-5-5-4--5-x-5-5-4--5-x-5-5-4--5-x-5-5-4--|
E----5-x-5-5-x--5-x-5-5-x--5-x-5-5-x--5-x-5-5-x--|

e-----5-x-5-5-1--5-x-5-5-1--5-x-5-5-1--5-x-5-5-1--|
B-----5-x-5-5-3--5-x-5-5-3--5-x-5-5-3--5-x-5-5-3--|
G-----6-x-6-6-3--6-x-6-6-3--6-x-6-6-3--6-x-6-6-3--|
D-----7-x-7-7-3--7-x-7-7-3--7-x-7-7-3--7-x-7-7-3--|
A-----7-x-7-7-1--7-x-7-7-1--7-x-7-7-1--7-x-7-7-1--|
E-----5-x-5-5-1--5-x-5-5-1--5-x-5-5-1--5-x-5-5-1--|

End on Dm
Tap to rate this tab
# A B C D E F G H I J K L M N O P Q R S T U V W X Y Z