Song name
# A B C D E F G H I J K L M N O P Q R S T U V W X Y Z

Lush - Deluxe tab

De-Luxe by Lush


Intro-Guitar1:
e--0-0-0-0-0--|
b--5-5-5-5-5--|
g-------------|
d-------------|
a-------------|
e-------------|


Intro arpeggio-Guitar2:
  E              G         A             D
e----0-----------3----------0------------2-----------------|
b-------0---x2------3----------2----x2------3--------------|
g-1--------1---4-------4--2-------2----2-------2-----------|
d----------------------------------------------------------|
a----------------------------------------------------------|
e----------------------------------------------------------|

Verse chords (these can be bar chords or open chords, but move up the neck! - watch
Miki's and Emma's hands in the youtube video)

E / G  / A  / B

Chorus chords:

G / A / F#m / B

Bridge chords:

G#m / G / B repeat a few times, then play A chord, then back to Chorus

Outro (bar chords descending from 12th fret)

E (12th fret) / D (10th fret) / A (9th fret) / B (7th fret)
Tap to rate this tab
# A B C D E F G H I J K L M N O P Q R S T U V W X Y Z