Guitaretab - guitar tabs
Song name
# A B C D E F G H I J K L M N O P Q R S T U V W X Y Z

Luther Vandross - Power Of Love Love Power tab

“Power Of Love/Love Power”
Artist:Luther Vandross

Tabbed by:Brad Chamberlain

Intro:(00:00)*Repeat twice until*----------------------------------|
e|-----------------------------------------------------------------|
B|-1------3---1------5------3------1------3------------------------|
G|-2------4---2------6------4------2------4---------2-| End Intro--|
D|-3------5---3------7------5------3------5---------3--------------|
A|-3------5---3------7------5------3------5---------3--------------|
E|-1----------1--------------------1----------------1--------------|
[ Tab from: http://www.guitaretab.com/l/luther-vandross/80247.html ]
Fill:(00:30, 01:22, and further into the song)
e|-17--20--17--20--17-17--20--17--20-|
B|-----------------------------------|
G|-----------------------------------| Play 6 times.
D|-----------------------------------|
A|-----------------------------------|
E|-----------------------------------|

Verse:(00:41)
e|--------------------------------------------------------|
B|-1--------5----3----------1--------5----3--------5------|
G|-2--------6----4----------2--------6----4--------6------|
D|-3--------7----5----------3--------7----5--------7------|
A|-3--------7----5----------3--------7----5--------7------|
E|-1------------------------1-----------------------------|

e|-----------------------------------------------------|
B|-1----------5------3------1----------5------3------1-|
G|-2----------6------4------2----------6------4------2-|
D|-3----------7------5------3----------7------5------3-|
A|-3----------7------5------3----------7------5------3-|
E|-1------------------------1------------------------1-|
Repeat 4 times
Related for Power Of Love Love Power tab