Song name
# A B C D E F G H I J K L M N O P Q R S T U V W X Y Z

Luxtorpeda - Tu I Teraz tab

Tab by Mashtre  mashtre@gmail.com

Band site: http://www.luxtorpeda.net/

Luxtorpeda  - Tu i Teraz

Intro i Refren:

E--------------------------------------------------|
B--------------------------------------------------|
G--------------------------------------------------|
D--------------------------------------------------|
A----------------------------------------333-----5-|
E-(0)-3p0-6-5-0-0-3p0-6-5-0-0-03p0-6-5-0-----444---|

(0) - jest grane tylko w 1 takcie

Zwrotka:

1)
E--------------------------------------------------|
B--------------------------------------------------|
G--------------------------------------------------|
D--------------------------------------------------|
A-2-2-22--2-2-2--2-3p2--2-2-2--22--2-2--2-3p2------|
E-2-2-22--2-2-2--2-3p2--2-2-2--22--2-2--2-3p2------|

2)

E---------------------------------------------------------------|
B---------------------------------------------------------------|
G----------------------------------------------------------7*---|
D----------7/8/7-5---------7/8/7-5---------7/8/7-5--------------|
A--7777777---------7777777---------5555555---------7777777------|
E---------------------------------------------------------------|
7* - flazolet

Bridge: + jakies efekty chyba typu flanger lub chorus

E-----------------------|
B-----------------------|
G-----------------------|
D--3---6-5-----6-5-8-6--|
A----5-----555--5-5-5---|
E-----------------------|

Potem

E-------------------------------------|
B-------------------------------------|
G-10----13-12--------13--12--15--13---|
D----12-------121212---12--12--12-----|
A-------------------------------------|
E-------------------------------------|

Solo:

Pod solo gramy refren I zwrotke

E-20^22-22-20^22---

Dobra dalej nie podolalem, moze komus sie uda 
Tap to rate this tab
# A B C D E F G H I J K L M N O P Q R S T U V W X Y Z