Song name
# A B C D E F G H I J K L M N O P Q R S T U V W X Y Z

Luxuslaerm - Unsterblich chords

Highlighted       Show chord diagrams
this are the chords only for the e-guitar!

chorus:

    F    C#   A#   D#
E|--------------------|
B|--------------------|
G|-------6---------8--|
D|--3----6----8----8--|
A|--3----4----8----6--|
E|--1---------6-------|

post-chorus:

    F    C#
E|----------|
B|----------|
G|-------6--|
D|--3----6--|
A|--3----4--|
E|--1-------|

verse-fill (after post-chorus):

    F
E|------|
B|------|
G|------|
D|--3\--|
A|--3\--|
E|--1\--|
*( \ = slide down chord)

if bridge came after post-chorus you play like this:

    D#
E|-----|
B|-----|
G|--8--|
D|--8--|
A|--6--|
E|-----|
let ring this chord

after bridge, before chorus (last chord in bridge):

    C#
E|------|
B|------|
G|--6x--|
D|--6x--|
A|--4x--|
E|------|
*( x = staccato chord at last time you play; in the last chorus (after bridge) there is 
F at the first time!)
Tap to rate this tab
# A B C D E F G H I J K L M N O P Q R S T U V W X Y Z