Song name
# A B C D E F G H I J K L M N O P Q R S T U V W X Y Z

Luxuslaerm - Sag Es Wie Es Ist tab

Song: Sag es wie es ist!
Artist: Luxuslaerm
Album: So laut ich kann
Tuning: Standard


This is my first tab so please correct any mistakes

Intro 1
Guitar 1
   C#m
E|--4-4-4-4---
B|--5-5-5-5---
G|--6-6-6-6--- x4
D|--6-6-6-6---
A|--4-4-4-4---
E|------------

Intro 2
Guitar 1
   C#m   B    E     G#
|--4-4--2-2--7-7--4-4-4-
|--5-5--4-4--9-9--4-4-4-
|--6-6--4-4--9-9--5-5-5- x4
|--6-6--4-4--9-9--6-6-6-
|--4-4--2-2--7-7--6-6-6-
|-----------------4-4-4-

Guitar 2
|--4---------------------4-------------------
|----7-5-4----5-5----7----7-5-4----5-5----7--
|-----------/6----6/8------------/6----6/8---
|--------------------------------------------
|--------------------------------------------
|--------------------------------------------

Verse
Guitar 1
   C#m   F#   B      C
|--4-4--2-2--2-2--3-3-3--- 
|--5-5--2-2--4-4--5-5-5---
|--6-6--3-3--4-4--5-5-5--- 
|--6-6--4-4--4-4--5-5-5--- 
|--4-4--4-4--2-2--3-3-3--- 
|-------2-2---------------

Guitar 2
|------------------------------
|---5-5-5-7-7-7-5-5-5-4-4-4----
|--6-6-6-6-6-6-6-6-6-6-6-6-----  x3  not 100% but sound ok.
|------------------------------
|------------------------------
|------------------------------


Pre-Chorus Riff
Guitar 1(+2) 
|-----------------------------------------
|-----------------------------------------
|--131313-111111-999-888-999-888-666-555--
|--x-x-x--x x x--xxx-xxx-xxx-xxx-xxx-xxx--
|--111111-9 9 9--777-666-777-666-444-333--
|-----------------------------------------


Chorus I
Guitar 1
   C#    F#   B      C
|-------------------------         |--4--|
|-------------------------         |--4--|
|--6-6-------4-4--5-5-5--- x3 then |--5--| x7
|--6-6--4-4--4-4--5-5-5---         |--6--|
|--4-4--4-4--2-2--3-3-3---         |--6--|
|-------2-2---------------         |--4--|


Guitar 2
|--9999999999-11111111-12121212
|------------------------------
|------------------------------ x3  
|------------------------------     
|------------------------------
|------------------------------

After Chorus I
Guitar 1
   C#m   B    E     G#
|--4-4--2-2--7-7--4-4-4-
|--5-5--4-4--9-9--4-4-4-
|--6-6--4-4--9-9--5-5-5- x2
|--6-6--4-4--9-9--6-6-6-
|--4-4--2-2--7-7--6-6-6-
|-----------------4-4-4-

Guitar 2
|--4---------------------4-------------------
|----7-5-4----5-5----7----7-5-4----5-5----7--
|-----------/6----6/8------------/6----6/8---
|--------------------------------------------
|--------------------------------------------
|--------------------------------------------

Then again:
Verse
Pre-Chorus

Chorus II

just as Chorus I but Guitar 1 plays


   C#    F#   B      C
|-------------------------          |-----------------------------------------
|-------------------------          |-----------------------------------------
|--6-6-------4-4--5-5-5--- x3 then  |--131313-111111-999-888-999-888-666-555--
|--6-6--4-4--4-4--5-5-5---          |--x-x-x--x x x--xxx-xxx-xxx-xxx-xxx-xxx--
|--4-4--4-4--2-2--3-3-3---          |--111111-9 9 9--777-666-777-666-444-333--
|-------2-2---------------          |-----------------------------------------


   C#    F#   B      C
|-------------------------         |--4--|
|-------------------------         |--4--|
|--6-6-------4-4--5-5-5--- x3 then |--5--| x7
|--6-6--4-4--4-4--5-5-5---         |--6--|
|--4-4--4-4--2-2--3-3-3---         |--6--|
|-------2-2---------------         |--4--|


Bridge
|--5-----4-----4-----4-
|--5-----5-----5-----4-
|--6-x8--6-x8--6-x8--5-x8
|--7-----6-----7-----6-
|--7-----4-----7-----6-
|--5-----------5-----4-

Solo
Guitar 1 plays Intro 2 riff

qb = quarterbend it's not a halfstep like 16b17, just listen to the song
|-----------------------------------------------------------------
|--14-----14~---13~------------14-----14~--16-16qb-16b17r16-14-16~
|-----1211---12~---1312-11~-------1211----------------------------
|-----------------------------------------------------------------
|-----------------------------------------------------------------
|-----------------------------------------------------------------

|---------------------------
|--14-----14~---13~----------
|-----1211---12~---1312-11~- 
|---------------------------
|---------------------------
|---------------------------

PreChorus Riff after Solo
|-----------------------------------------
|-----------------------------------------
|--131313-111111-999-888-999-888-666-555--
|--x-x-x--x x x--xxx-xxx-xxx-xxx-xxx-xxx--
|--111111-9 9 9--777-666-777-666-444-333--
|-----------------------------------------


Last Chorus
Guitar 2 plays the same as before
Guitar 1
   C#    F#   B      C
|-------------------------          |-----------------------------------------
|-------------------------          |-----------------------------------------
|--6-6-------4-4--5-5-5--- x3 then  |--131313-111111-999-888-999-888-666-555--
|--6-6--4-4--4-4--5-5-5---          |--x-x-x--x x x--xxx-xxx-xxx-xxx-xxx-xxx--
|--4-4--4-4--2-2--3-3-3---          |--111111-9 9 9--777-666-777-666-444-333--
|-------2-2---------------          |-----------------------------------------


   C#    F#   B      C
|-------------------------         |--4--|           
|-------------------------         |--4--|           
|--6-6-------4-4--5-5-5--- x3 then |--5--| x4 then   
|--6-6--4-4--4-4--5-5-5---         |--6--|           
|--4-4--4-4--2-2--3-3-3---         |--6--|           
|-------2-2---------------         |--4--|


|------------------------
|------------------------
|--131313-111111-999-888-
|--x-x-x--x x x--xxx-xxx-
|--111111-9 9 9--777-666-
|------------------------



Outro
i play it like this, it's not 100% right but it sounds ok
|----------------------------    |-------------------------
|---5-----4-----2------4-----    |---5-----2-----2------4--
|-----6-----4-----4------6--- x3 |-----6-----4-----4-------
|--6-----4-----4-----/6------    |--6-----4-----4-----/6---
|----------------------------    |-------------------------
|----------------------------    |-------------------------
Tap to rate this tab
# A B C D E F G H I J K L M N O P Q R S T U V W X Y Z