Song name
# A B C D E F G H I J K L M N O P Q R S T U V W X Y Z

Luys De Narvaez - Los Seys Libros Del Delphin Vol 6 No 3 - Baxa De Contrapunto tab

Lute tuning: E A D F# B E

-0-----0-2-0---------0-------0-----0-----0-2-0---------0-------0--------------|
-0-2-4-0-----3-2-0---------------0---2-4-0-----3-2-0--------------------------|
-2-3---------------3-2-3-2-0-2-------3---------------3-2-3-2-0-2---0-2-0-2-3--|
-2-4---2-----------------------2---2-4---2-----------------------2------------|
------------------------------------------------------------------------------|
-------0-------------0-------0-----------0-------------0-------0--------------|
 . . . . . + . + . + . + . + . . . . . . . . + . + . + . + . + . . + . + . +

-------0-2-4-2-0---------------2---0-3-2---0-2-0-----------------0------------|
-0-2-4-----------4-2-0---------0-4-----0-4-0-----3-2-0---0-2-0-----------0-2--|
-----------------------3-2-0---------------------------2-------3-2-0-2-3------|
-----------------------------2-------------2----------------------------------|
-------------------------------2-------2--------------------------------------|
-------------------------------------------0-------------0-------0------------|
 . + . + . + . + . + . + . + . . . . . . . . . + . + . + . + . + . + . + . +

---0-2-0---------------------------0-2-3-2-0----------------------------------|
-3-------3-2-3-2-0---0---0-2-3-2-3-----------3-2-0---0-2-3-0-2-3-2-0----------|
-------------------3---3---------------------------3-----------------3-2-0-2--|
------------------------------------------------------------------------------|
-------------2---------------2-------2---------------2------------------------|
-------------------------------------------------------------2----------------|
 . + . + . + . + . + . + . + . + . + . + . + . + . + . + . + . + . + . + . +

---------------------0-2-0---------0-------0-------0-------------------2-0----|
---0-2-3-2---2---2-4-0-----3-2-0-----------------2-0-----------------------3--|
-3---------3---2-3---------------3-2-3-2-0-2---3-----2-3-------3-------3------|
-----------4---2-4---2-----------------------2-----2---4-2-0---0--------------|
-------------------------------------------------------------4---4-2-4--------|
-2-------2-----------0-------------0-------0---------------------------2------|
 . + . + . . . . . . . . + . + . + . + . + . . . . . . . . + . ..+ a . . . +

-------------------------------------0-2-0-----------5-3-2-0---0-2-0----------|
-2-3---2-0-2-0-------------0-2-3-2-3-------3-2-0-------------3-------3-2-0-2--|
-----3---------2-0---0-2-3-----------------------2-3--------------------------|
-------------0-2-0-2-----------0---------------2------------------------------|
---------------------------------------------------0---0-------0-------0------|
-----2------------------------------------------------------------------------|
 . . . + a . . . . . + . + . + . + . + . + . + . . . . . + . + . + . + . + .

---0---------------------------------------------------------------0-2-0------|
-3---3-2-0---0-2-3-2-3-2-0-----------------------------------------------3-2--|
-----------3---------------3-2-0-3-2-3-2-0---0--------------------------------|
-------------------------------------------2---2-0----------------------------|
---------------------------------------------------4-2-0-4-2-0----------------|
-------------------2-------------------------------------------4-2-0----------|
 + . + . + . + . + . + . + . + . + . + . + . + . + . + . + . + . + . . + . +

-----0-------0-------0-2-------2-----2-------2---0-------0-----0-------0------|
-0-----------------------2-4-2---2-4-2-----5-2-----0-2-0---0-2-0-----2-0---3--|
---3-2-3-2-0-2-----------4-5-4-5-------4-5-----4---2-3-2-3-------2-3-----2----|
---------------2-----2---------------4-------4-----------------2-------2------|
-----------------2------------------------------------------------------------|
-----0-------0-----0----------------------------------------------------------|
 . + . + . + . . . . ... . . . . + . . . . . . . . . . . . + . . . . . . . .

----------------------------------------------------0-------0---0-------0-----|
-------3------3-----0-3---1-------1-----1-------1-----2---0-2---0---2-3-0-----|
-3-5-3---3-5--3-0-1---3-0---1-3-1---1-3-1-----3-1-------3-----3-3-2-3-0-3-2---|
-4-5-4-5------0-------0-----2-3-2-3-------2-3-----2---------------------------|
----------------------------------------3-------3-----0-----0-----------------|
----------------------------------------------------------4-----0-------0-----|
 . . . . + .  . . . . . . . . . . . + . . . . . . . . . . . . . . . . . . . .

-------0-2---0-2-4-5-------2---0-2-4-5-4-2-0-2-4-----0------------------------|
-3-2-3-------------2-----------------2-------4-5-2-4-----0-2-------------2----|
-3---------3-------0---------3-------0-----------3-----3-----0-2-3---2-0------|
---------------------2-0---0-------------------------2-4-----0-----------3----|
-------------------------4---------------------------------4-----4-0-2---4----|
-2---------2------------------------------------------------------------------|
 ..+ . + . . + . + . . + . . . + . + . + . + . + . + . + . + . + . + . + .
Tap to rate this tab
# A B C D E F G H I J K L M N O P Q R S T U V W X Y Z