Song name
# A B C D E F G H I J K L M N O P Q R S T U V W X Y Z

Lycanthropy - Oppressive Catastasis tab

Lycanthropy '2013

Album (EP):
Dead Silence

Oppressive Catastasis
----------------------------------------------------------
1-E,
2-B,
3-G,
4-D,
5-A,
6-E.

tempo 250
----------------------------------------------------------

Fig.1 (3 times)

 - ---------------------------------------------------- -|
 - ---------------------------------------------------- -|
 - 5-5-5-5-4-4-4-4-8-8-8-8-7-7-10-9-------------------- -|
 - 5-5-5-5-4-4-4-4-8-8-8-8-7-7-10-9-------------------- -|
 - 3-3-3-3-2-2-2-2-6-6-6-6-5-5--8-7-------------------- -|
 - 3-3-3-3-2-2-2-2-6-6-6-6-5-5--8-7-------------------- -|

Fig.2 (2 times)

 - ----------------------------------------------------- -|
 - ----------------------------------------------------- -|
 - ----------------------------------------------------- -|
 - 7-7-7-7-6-6-6-6-7-7-7-7-6-7\6-7\6-------------------- -|
 - 7-7-7-7-6-6-6-6-7-7-7-7-6-7\6-7\6-------------------- -|
 - 5-5-5-5-4-4-4-4-5-5-5-5-4-5\4-5\4-------------------- -|

 2nd end.
 - ------------ -|
 - ------------ -|
 - ------------ -|
 - 6-7\6-3\4--- -|
 - 6-7\6-3\4--- -|
 - 4-5\4-1\2--- -|

Fig.3 (2 times)

 - ---------------------------------------- -|
 - ---------------------------------------- -|
 - ---------------------------------------- -|
 - ---------------------------------------- -|
 - 10-9-6-5-10-9-6-5\6\5\6----------------- -|
 -  7--7-3-3--7-7-3-3-3-3-3---------------- -|

Fig.4 (equal to fig.1 except 2nd repetition)

 - ---------------------------------------------------- -|
 - ---------------------------------------------------- -|
 - 5-5-5-5-4-4-4-4-8-8-8-8-7-7-10\9-10----------------- -|
 - 5-5-5-5-4-4-4-4-8-8-8-8-7-7-10\9-10----------------- -|
 - 3-3-3-3-2-2-2-2-6-6-6-6-5-5--8\7\\8----------------- -|
 - 3-3-3-3-2-2-2-2-6-6-6-6-5-5--8\7\\8----------------- -|

Fig. 5

 - ------------------------------------- -|
 - ------------------------------------- -|
 - ------------------------------------- -|
 - 7-7-7-7-6-7\6-7\6-------------------- -|
 - 7-7-7-7-6-7\6-7\6-------------------- -|
 - 5-5-5-5-4-5\4-5\4-------------------- -|
Tap to rate this tab
 
# A B C D E F G H I J K L M N O P Q R S T U V W X Y Z