Song name
# A B C D E F G H I J K L M N O P Q R S T U V W X Y Z

Lycanthropy - I tab

Lycanthropy '2012

Album (EP):
Epitaphium

 I
----------------------------------------------------------
1-E,
2-B,
3-G,
4-D,
5-A,
6-E.

tempo 180
----------------------------------------------------------

Fig.1

 - ---------------------------------------- -|
 - ---------------------------------------- -|
 - 3-------3-------3--------3-------------- -|
 - -2-------2-------2--------2------------- -|
 - --3-2-1--3-2-1--3-2-1--3-2\3\2\1-------- -|

Fig.2
pm riff
 - ---------------------------------------- -|
 - ---------------------------------------- -|
 - ---------------------------------------- -|
 - ---------------------------------------- -|
 - ---------------------------------------- -|
 - 2-4-5-4-2-6-8-9-8--6-------------------- -|

Fig.3

 - ------------------------------- -|
 - ------------------------------- -|
 -3--------3---------------------- -|
 - 2--------2--------------------- -|
 - -3-2-1--3-2\3\2\1-------------- -|
Tap to rate this tab
# A B C D E F G H I J K L M N O P Q R S T U V W X Y Z