Song name
# A B C D E F G H I J K L M N O P Q R S T U V W X Y Z

Lycanthropy - Morbidity tab

Lycanthropy '2011

Album (EP):
Instinct for Vengeance

Morbidity
----------------------------------------------------------
1-E,
2-B,
3-G,
4-D,
5-A,
6-E.

tempo 180
----------------------------------------------------------
Fig.1 (4 times)

 - ------------------------------------ -|
 - ------------------------------------ -|
 - ------------------------------------ -|
 - -------2-4-------2-5---------------- -|
 - 2\3-3-5--2\3-3-7-------------------- -|
 - 0(0)------0(0)---------------------- -|

Fig.2 (4 times)

 - ----------------------------------- -|
 - ----------------------------------- -|
 - ----------------------------------- -|
 - 2-2-4-4-2-2-5-5-------------------- -|
 - 3-3-5-5-3-3-7-7-------------------- -|
 - ----------------------------------- -|

Fig.3 (4 times)

 - --------------------------------- -|
 - --------------------------------- -|
 - --------------------------------- -|
 - 10-10-7-7-10-10--9--9------------ -|
 - 7---7--8-8--7---7--10-10--------- -|
 - --------------------------------- -|
Tap to rate this tab
# A B C D E F G H I J K L M N O P Q R S T U V W X Y Z