Song name
# A B C D E F G H I J K L M N O P Q R S T U V W X Y Z

Lydia - Fools And Luxury tab

Song: Fools and Luxury
Artist: Lydia
Tabber: Minions

Tuning: Standard-E
CAPO ON 2nd FRET

Intro/Verse:

< (Fade in)

e|-----1--------1----------3--------3----1-1----1111-------3-3-----3333-----|
B|-5-5---5-5555---5---5-5---5-5555---5------5-5------5-5-------5-5------5-5-|
G|--------------------------------------------------------------------------|
D|--------------------------------------------------------------------------|
A|--------------------------------------------------------------------------|
E|--------------------------------------------------------------------------|

e|-----1--------1----------3--------3----1-1----1111-------3-3-----3333-----|
B|-5-5---5-5555---5---5-5---5-5555---5------5-5------5-5-------5-5------5-5-|
G|--------------------------------------------------------------------------|
D|--------------------------------------------------------------------------|
A|--------------------------------------------------------------------------|
E|--------------------------------------------------------------------------|

e|-----1--------1----------3--------3----1-1----1111-------3-3-----3333-----|
B|-5-5---5-5555---5---5-5---5-5555---5------5-5------5-5-------5-5------5-5-|
G|--------------------------------------------------------------------------|
D|--------------------------------------------------------------------------|
A|--------------------------------------------------------------------------|
E|--------------------------------------------------------------------------|

e|-----1--------1----------3--------3----1-1----1111-------3-3-----3333-----|
B|-5-5---5-5555---5---5-5---5-5555---5------5-5------5-5-------5-5------5-5-|
G|--------------------------------------------------------------------------|
D|--------------------------------------------------------------------------|
A|--------------------------------------------------------------------------|
E|--------------------------------------------------------------------------|


Pre-Chorus:

e|---------------------------------------------------------------------|
B|---------------------------------------------------------------------|
G|---------------------------------------------------------------------|
D|---------------------------------------------------------------------|
A|-----5--------5-------5--------5-------5--------5-------5--------5---|
E|-3-3---3-3333---3-2-2---2-2222---2-0-0---0-0000---0-2-2---2-2222---2-|

e|---------------------------------------------------------------------|
B|---------------------------------------------------------------------|
G|---------------------------------------------------------------------|
D|---------------------------------------------------------------------|
A|-----5--------5-------5--------5-------5--------5-------5--------5---|
E|-3-3---3-3333---3-2-2---2-2222---2-0-0---0-0000---0-2-2---2-2222---2-|

e|---------------------------------------------------------------------|
B|---------------------------------------------------------------------|
G|---------------------------------------------------------------------|
D|---------------------------------------------------------------------|
A|-----5--------5-------5--------5-------5--------5-------5--------5---|
E|-3-3---3-3333---3-2-2---2-2222---2-0-0---0-0000---0-2-2---2-2222---2-|

e|---------------------------------------------------------------------|
B|---------------------------------------------------------------------|
G|---------------------------------------------------------------------|
D|---------------------------------------------------------------------|
A|-----5--------5-------5--------5-------5--------5-------5--------5---|
E|-3-3---3-3333---3-2-2---2-2222---2-0-0---0-0000---0-2-2---2-2222---2-|


Chorus:

(I'm not sure about the rhythm, but that doesn't really matter so just improvise).

   C               F        G5
e|-3---------------3------------------------|
B|-5---------------6------------------------|
G|-5---------------5--------0---------------|
D|-5---------------3--------5---------------|
A|-3---------------3--------5---------------|
E|--------------------------3---------------|

   C               F        G5
e|-3---------------3------------------------|
B|-5---------------6------------------------|
G|-5---------------5--------0---------------|
D|-5---------------3--------5---------------|
A|-3---------------3--------5---------------|
E|--------------------------3---------------|

   C               F        G5
e|-3---------------3------------------------|
B|-5---------------6------------------------|
G|-5---------------5--------0---------------|
D|-5---------------3--------5---------------|
A|-3---------------3--------5---------------|
E|--------------------------3---------------|

   C               F        G5
e|-3---------------3------------------------|
B|-5---------------6------------------------|
G|-5---------------5--------0---------------|
D|-5---------------3--------5---------------|
A|-3---------------3--------5---------------|
E|--------------------------3---------------|

Bridge:

(Again, I'm not sure about the rhythm).

   C               Cadd9           F               G6
e|-3---------------3---------------3---------------0---------------|
B|-5---------------3---------------6---------------0---------------|
G|-5---------------5---------------5---------------0---------------|
D|-5---------------5---------------3---------------5---------------|
A|-3---------------3---------------3---------------5---------------|
E|-------------------------------------------------3---------------|

   C               Cadd9           F               G6
e|-3---------------3---------------3---------------0---------------|
B|-5---------------3---------------6---------------0---------------|
G|-5---------------5---------------5---------------0---------------|
D|-5---------------5---------------3---------------5---------------|
A|-3---------------3---------------3---------------5---------------|
E|-------------------------------------------------3---------------|

   C               Cadd9           F               G6
e|-3---------------3---------------3---------------0---------------|
B|-5---------------3---------------6---------------0---------------|
G|-5---------------5---------------5---------------0---------------|
D|-5---------------5---------------3---------------5---------------|
A|-3---------------3---------------3---------------5---------------|
E|-------------------------------------------------3---------------|

   C               Cadd9           F               G6
e|-3---------------3---------------3---------------0---------------|
B|-5---------------3---------------6---------------0---------------|
G|-5---------------5---------------5---------------0---------------|
D|-5---------------5---------------3---------------5---------------|
A|-3---------------3---------------3---------------5---------------|
E|-------------------------------------------------3---------------|

(Maria's voice comes in):

   C               Cadd9           F               G6
e|-3---------------3---------------3---------------0---------------|
B|-5---------------3---------------6---------------0---------------|
G|-5---------------5---------------5---------------0---------------|
D|-5---------------5---------------3---------------5---------------|
A|-3---------------3---------------3---------------5---------------|
E|-------------------------------------------------3---------------|

   C               Cadd9           F               G6
e|-3---------------3---------------3---------------0---------------|
B|-5---------------3---------------6---------------0---------------|
G|-5---------------5---------------5---------------0---------------|
D|-5---------------5---------------3---------------5---------------|
A|-3---------------3---------------3---------------5---------------|
E|-------------------------------------------------3---------------|

> (Fade out)

   C               Cadd9           F               G6
e|-3---------------3---------------3---------------0---------------|
B|-5---------------3---------------6---------------0---------------|
G|-5---------------5---------------5---------------0---------------|
D|-5---------------5---------------3---------------5---------------|
A|-3---------------3---------------3---------------5---------------|
E|-------------------------------------------------3---------------|


ORDER OF PARTS:
---------------

Part           | Times  | Time In Song

Intro/Verse    |   4x   | 0:00-1:00
Pre-Chorus     |   4x   | 1:01-2:01
Chorus         |   4x   | 2:02-3:02
Bridge         |   4x   | 3:03-4:03
Bridge (Maria) |   3x   | 4:04-4:48
Tap to rate this tab
# A B C D E F G H I J K L M N O P Q R S T U V W X Y Z