Guitaretab - guitar tabs
Song name
# A B C D E F G H I J K L M N O P Q R S T U V W X Y Z

Lydia - Its In Your Blood tab

Itís In Your Blood - Lydia

	Intro

e:--0---0---0---0------------------------------------------------------|
B:--5---5---5---5------------------------------------------------------|
G:--6---6---6---6------------------------------------------------------|
D:--4---x---0---x------------------------------------------------------|
A:------0-------0------------------------------------------------------|
D:---------------------------------------------------------------------|

	Verses
e:---------------------------------------------------------------------|
B:---------------------------------------------------------------------|
G:--6----6--9--6----6----4---------------------------------------------|
D:--7----7--7--7----7----2---------------------------------------------|
A:--4----5--5--5----4----2---------------------------------------------|
D:--4----0--0--0----4----2---------------------------------------------|


	Chorus
[ Tab from: http://www.guitaretab.com/l/lydia/112970.html ]
e:---9---(12)----------------------------------------------------------|
B:---10ó-(9)---(12)----------------------------------------------------|
G:---9-----------------------------------------------------------------|
D:---11----------------------------------------------------------------|
A:---0-----------------------------------------------------------------|
D:---------------------------------------------------------------------|


	Outro(ish?)

e:---------------------------------------------------------------------|
B:--5555--555--555-----------------------------------------------------|
G:--6666--777--666-----------------------------------------------------|
D:--7777--777--777--9999-----------------------------------------------|
A:--0000--000--000--7777-----------------------------------------------|
D:------------------7777-----------------------------------------------|


Yeah so I modeled this around the live acoustic versions and listened to the song a few
to quickly came up with this. It's very basic and I didnít put any of the strumming
really because itís easier to just listen yourself. For the chorus part anything in the 
() just means the note is played but Iím not sure in what order, so just listen and
around with the root A chord there with those notes. Thatís about it really, this is 
the chords and there is a lot of picking in this song done by another guitar so try to 
past that. Other than that good luck and enjoy. Feel free to post revisions if you have any.
Related for Its In Your Blood tab