Song name
# A B C D E F G H I J K L M N O P Q R S T U V W X Y Z

Lydia - All I See tab

For anyone who likes Lydia and cant find the tabs, well im working on there 
latest album Illuminate, [enjoy]

e(------------15-----------15----------15-----x2--)
G(--------------15-----------15-------------------)
B(----------------16-----------16-----------------)
A(----------17-----------17-----------------------)
F(------------------------------------------------)
E(------------------------------------------------)

e(------------------------------------------------)
G(------------15------------15---------15-----X2--)
B(--------------16------------16------------------)
A(----------------17------------17----------------)
F(----------19------------19----------------------)
E(------------------------------------------------)
Tap to rate this tab
# A B C D E F G H I J K L M N O P Q R S T U V W X Y Z