Song name
# A B C D E F G H I J K L M N O P Q R S T U V W X Y Z

Lydia - Hospital tab

Hospital

(Direct from an email from Ethan. Enjoy.)


E|--------------------------------------------|
B|--------------------------------------------|
G|------12------11------12----------------0---|
D|----9-------9-------9------------12---------|
A|-10------10------10-------10--10----10----9-|
E|--------------------------------------------|

E|----0--0----|
B|-0--0--0--0-|
G|-0--0--0--0-|
D|-5--7--2--4-|
A|-7--9--3--5-|
E|------------|


Verse
E|-------------------------------------------|
B|-------------------------------------------|
G|------7------0-------------7-------0-------|
D|----9------9-------9-----9-------9-------9-|
A|-10-----10------10----10------10------10---|
E|-------------------------------------------|


E|--------------------------------------------|
B|--------------------------------------------|
G|------12------11------12----------------0---|
D|----9-------9-------9------------12---------|
A|-10------10------10-------10--10----10----9-|
E|--------------------------------------------|


E|------------------------------------|
B|------------------------------------|
G|-----7------7-----------12-------12-|
D|---7------7-----7-----9--------9----|
A|-9------9-----9----10-------10------|
E|------------------------------------|

Chorus
E|-7--9--0--0-|
B|-0--0--0--0-|
G|-0--0--0--0-|
D|-5--7--2--4-|
A|-7--9--3--5-|
E|------------|

Bridge
E|-------------|
B|-----------3-|
G|--7--7--0--0-|
D|--9--7--5--4-|
A|-10--9--7--5-|
E|-------------|

Tap to rate this tab
 
# A B C D E F G H I J K L M N O P Q R S T U V W X Y Z