Lydia - Now The One You Once Loved Is Leaving tab

I got this from watching someone on youtube cover it on piano.  

Intro/Verse
   Bm   Em Bm  Bbm  Bm  A  G    Em   G A Bb
e|-------------------------3-3--0-0--3---------|
B|-3-3--8-8-3--2-2--3-3-2--3-3--0-0--3-2-------|
G|-4-4--9-9-4--3-3--4-4-2--0-0--0-0--0-2-3-----|
D|-4-4--9-9-4--3-3--4-4-2--0-0--2-2--0-2-3-----|
A|-2-2--7-7-2--1-1--2-2-0--2-2--2-2--2-0-1-----|
E|-------------------------3-3--0-0--3---------|

Chorus (something like this. Just Bm and F#m)
e|--------------------------------------------|
B|-3-3-3--3-3-3--3-3-3------------------------|
G|-4-4-4--4-4-4--4-4-4--2-2-2-2-2-2-----------|x2
D|-4-4-4--4-4-4--4-4-4--4-4-4-4-4-4-----------|
A|-2-2-2--2-2-2--2-2-2--4-4-4-4-4-4-----------|
E|----------------------2-2-2-2-2-2-----------|

The outro chords are:
G   D   A   Bm A 
that last A is quick right before you start back at G
Tap to rate this tab
 
# A B C D E F G H I J K L M N O P Q R S T U V W X Y Z