Song name
# A B C D E F G H I J K L M N O P Q R S T U V W X Y Z

Lydia - This Is Twice Now chords

Highlighted       Show chord diagrams
Lydia: This Is Twice Now
You can either play Em, D, C, C on the verses or: Em, Dadd4, Cmaj7, C.



Capo 2
Guitar 1
    	
E|--0-----0-----0-----0-----2-----2-----2-----2----|
B|----0-----0-----0-----0-----3-----3-----3-----3--|
G|------0-----0-----0-----0-----2-----2-----2-----2|
D|--2-----2-----2-----2-----0-----0-----0-----0----|
A|-------------------------------------------------|
E|-------------------------------------------------|
   
E|--3----3----3----3----3----3----3----3----------|
B|----1----1----1----1----1----1----1----1--------|
G|------------------------------------------------|
D|-----0----0----0----0-----0----0----0----0------|
A|--3----3----3----3----3-------------------------|
E|------------------------------------------------|

Guitar 2
E|--0----0----0----0------2/0--2/0--2/0--2/0--|
B|----0----0----0----0------------------------|
G|------0---0----0-----0----------------------|
D|---------------------------0----0----0----0-|
A|--------------------------------------------|
E|--------------------------------------------|
       
E|--3/2--3/2--3/2--3/2--3/2--3/2--3/2--3/2--3---------|
B|----------------------------------------------------|
G|-----0----0----0----0----0----0----0----0-----------|
D|----------------------------------------------------|
A|----------------------------------------------------|
E|----------------------------------------------------|

Em                          Dadd4
Baby just ask once more
		         Cmaj7
'Cause I saw your door wide open,
	C
but the floor is still freezing.
Em                         			    D
Hailey, I was sick and I'm still quite un-well.
		       C
Tell me it's you or nothing at all.
 
      Em  D             C           
'Cause I stole your soul
Em		D           C
You said I'd never be able
     Em  D      C                    Em
But oh, the whole world
	D          C   
 is still on my string

Em					      Dadd4
Second time now and you've done this before
			     Cmaj7
Drive around the back so I can't see them
       C
But you're still freezing.
Em						D
Let me take your coat and your keys and this car,
              	 	    C
'Cause Iíve been unwell far too long now.

     
 Em  D             C           
'Cause I stole your soul
Em		D           C
You said I'd never be able
     Em  D      C                    Em
But oh, the whole world
	D          C   
 is still on my string

First and third times								           x3
E|----3--2-------------------3--2----------------------|
B|----------3/5/3-3/5/3-0h1--------3/5/3/1p0-1p0-------|
G|-----------------------------------------------2p0---|
D|-----------------------------------------------------|
A|-----------------------------------------------------|
E|-----------------------------------------------------|
 Second time:	B|---1p0---|

      Em			        D
But oh, the whole world is still on my string
         C			         Em
And oh, the whole world is still on my string,
	D
Yeah, is still on my string
        C			         Em
 But oh, the whole world is still on my string, (It's never much when I sing about you.)
	D
Yeah, is still on my string
        C			         Em
 But oh, the whole world is still on my string, (It's never much when I sing about you.)
	D
Yeah, is still on my string

End on: C
Tabbed By Drew Lingrell


Tap to rate this tab
 
# A B C D E F G H I J K L M N O P Q R S T U V W X Y Z