Song name
# A B C D E F G H I J K L M N O P Q R S T U V W X Y Z

Lydia - One More Day tab

1st Guitar:
e|------------------------------------------------------|
b|----6-----5-------3-----5------0-----0-----3-----5----|
g|--------------------5~----5~-----5~---5~----5~----5~--|
d|------7~----7~---------------3-----3-----5-----5------|
a|--0~----0~------0~----0~------------------------------|
e|------------------------------------------------------|

2nd Guitar:
e|---------------------------------------------------|
b|----8~~----------------------8~~-------------------|
g|--------9~--7h9------------------9~--7h9--10p9-7~--|
d|--7---7---7----7-10p9-7~---------------------------|
a|---------------------------8---8---8-----8---------|
e|---------------------------------------------------|

Verse:
Am, F, G

Pre-Chorus/Chorus:
F,G, Am~
Tap to rate this tab
# A B C D E F G H I J K L M N O P Q R S T U V W X Y Z