Song name
# A B C D E F G H I J K L M N O P Q R S T U V W X Y Z

Lydia - Seasons tab

I'm pretty sure this is mostly accurate. Feel free to make suggestions.



e|--7---7-5----------------7--5----------------------------------|
B|-----------5h7/8---8--88---------------------------------------|
G|--------------------------------0h5h7-4-------------/7-4-------|
D|------------------------------------------7--5--555------7-----|
A|---------------------------------------------------------------|
E|---------------------------------------------------------------|

e|---------------------------------------------------------------|
B|---------------------------------------------------------------|
G|-7-7-7-7-7-7-4hp5h4p5h4p5h4p5h4p5h4p5h4p5h4p5h4p5h4p5h4p5h4p5h-|
D|---------------------------------------------------------------|
A|---------------------------------------------------------------|
E|---------------------------------------------------------------|

e|--------7-7-7-7-7-7--7~--7-5----5h7p5-----------------5--------|
B|-----------------------------8-------8-0-0--0-8-8-8-8----------|
G|-/7-7-7--------------------------------------------------------|
D|---------------------------------------------------------------|
A|---------------------------------------------------------------|
E|---------------------------------------------------------------|
Tap to rate this tab
# A B C D E F G H I J K L M N O P Q R S T U V W X Y Z