Song name
# A B C D E F G H I J K L M N O P Q R S T U V W X Y Z

Lydia - Ive Never Seen A Witch tab

This is the first TAB I've made so it's whatever. Did it by ear. It's definitely not 
complete, but it still sounds pretty noice. Lydia is amazing.  <3   <-- omg super cyoot 
heart kawaii balls in my mouth



Tuning: Standard

Intro/verse

e : ----------------------------------------------------------|
B : ----9---11---12---14-----------14-----------14------------|
G : ----------------------11-----------11-----------11--------|
D : ----------------------------------------------------------|
A : ----8---9----11---14-----14----14-----14----14-----14-----|
E : ----------------------------------------------------------|

e : ---------------------------------------------------------|
B : ---7--------9------7-------6--------4-----4h6------------|
G : ---------------------------------------------------------|
D : ---------------------------------------------------------|
A : ---6-----6----6----6-------4-----4----4---4--------------|
E : ---------------------------------------------------------|



Bridge
       I        II        III*      IV
e : -----------------------6-----------------|
B : -----------------------7-----------------|
G : ---4--------6----------8---------6-------|    *play this 2x and on the second time let the
D : ---4--x12---6--x12-----8--x12----6--x12--|   third chord (III) ring.
A : ---2--------4----------6---------4-------|
E : -----------------------------------------|


The  Chorus uses the same chords as the bridge starting with the third chord (III) going 
down to the second chord (II) then to the first chord (I) then back up

     speak/stare      small mouth/       I          In my own house
                  and I might transform
e : --6-------------------------------------------------------------|
B : --7-------------------------------------------------------------|
G : --8---------------6------------------4--------------6-----------|
D : --8---------------6------------------4--------------6-----------|
A : --6---------------4------------------2--------------4-----------|
E : ----------------------------------------------------------------|


["All hail the queen" = play the verse]

"yeeeaaaahhhhhhh" part:

e : --------------------------------------------------|
G : --------------------------------------------------|
B : --11------------10---------8------------4---------|
D : --11--x12------11--x12----8--x12-------4--x12-----|
A : --9-------------8----------6------------6---------|
E : --------------------------------------------------|

For the second chorus, play the same progression as the bridge. It should be easy to figure out.

-Tyler
Tap to rate this tab
 
# A B C D E F G H I J K L M N O P Q R S T U V W X Y Z