Song name
# A B C D E F G H I J K L M N O P Q R S T U V W X Y Z

Lyenex - Your Cover tab

E-------------------------------X-------------|
B-------------------------------X-------------|
G-------------------------------X-------------|
D------44------4---------44-----X------7------|
A-----------------------2-------X--5-------5--|
E----2-----22-----2-------------X-------------|

That's the intro riff

Here's the little lead/solo
E----------------------------------------------|
B----------------------------------------------|
G----------------------------------------------|
D----------------------------------------------|
A---17/16--16/17--19--17--16--17---------------|X2
E----------------------------------------------|


E--------------------------------------------------------|
B--------------------------------------------------------|
G--------------------------------------------------------|
D---19/18--18/19--21--19--18--19--X2--end-solo-on-18-----|
A--------------------------------------------------------|
E--------------------------------------------------------|

The other parts are variations of the 3 chords.

e|-------------------------------------------------------|
B|-------------------------------------------------------|
G|------4----7-------------------------------------------|
D|-4----4----7-------------------------------------------|
A|-4----2----5-------------------------------------------|
E|-2-----------------------------------------------------|
Tap to rate this tab
# A B C D E F G H I J K L M N O P Q R S T U V W X Y Z