Song name
# A B C D E F G H I J K L M N O P Q R S T U V W X Y Z

Lyfe Jennings - Must Be Nice tab

Lyfe Jennings
Must be nice
Standard tuning
EADGBe

intro/chorus
e--------------------------------------------|
B-------------7--6--4------------------------|
G--7--6--3-------------6--7--6--3------------|
D--7--6--3----------------7--6--3------------|
A--5--4--1----------------5--4--1------------|
E--------------------------------------------|

verse
e--------------------------------------------|
B--------------------------------------------|
G--7--6--3----------------7--6--3------------|
D--7--6--3----------------7--6--3------------|
A--5--4--1----------------5--4--1------------|
E--------------------------------------------|

yea well repeat as needed.
enjoy.
Tap to rate this tab
# A B C D E F G H I J K L M N O P Q R S T U V W X Y Z