Song name
# A B C D E F G H I J K L M N O P Q R S T U V W X Y Z

Lykke Li - Until We Bleed tab

-----------------------------------------------------------------------------
			     UNTIL WE BLEED – Lykke Li
-----------------------------------------------------------------------------
Email: kitty_9999_7@hotmail.com

Hiya,
Well, I'm kinda obsessed with this song and I couldn't find a tab anywhere so I thought 
I could help every other person who loves it and wanted a tab!
This tab is just the main riff, if you wanted to add extra you could get another guitar 
do the chords.

Tuning: eBGDAE

Am = e|-x--          G/C= e|-x--|
     B|-1--               B|-0--|
     D|-2--               D|-0--|
     A|-2--               A|-2--|
     E|-0--               E|-3--|
     G|-x--               G|-3--|


?  = e|-x--         G/C?= e|-x--|
     B|-x--               B|-3--|
     D|-2--               D|-0--|
     A|-2--               A|-2--|
     E|-0--               E|-3--|
     G|-1--               G|-3--|

Intro:
      Am        G/C         ?
e|-------------------------------------------------|
B|----1----------0---------------------------------|
G|--------------------------2----------------------|  x2
D|------2-2-2------2-2-2------2-2-2---2-2-2--------|
A|----0--------------------------------------------|
E|---------------3----------1----------------------|

Verse 1:

“I’m naked, I’m numb...”
      Am        G/C         ?
e|-------------------------------------------------|
B|----1----------0---------------------------------|
G|--------------------------2----------------------|
D|------2-2-2------2-2-2------2-2-2---2-2-2--------|
A|----0--------------------------------------------|
E|---------------3----------1----------------------|

“And if Cupid’s got gun...”
      Am        G/C?        ?
e|-------------------------------------------------|
B|----1----------3---------------------------------|
G|--------------------------2----------------------|
D|------2-2-2------2-2-2------2-2-2---2-2-2--------|
A|----0--------------------------------------------|
E|---------------3----------1----------------------|

“Lights black, heads bang...”
      Am        C/G         ?
e|-------------------------------------------------|
B|-------------------------------------------------|
G|-------------------------------------------------| x2
D|------2-2-2------2-2-2------2-2-2---2-2-2--------|
A|----0--------------------------------------------|
E|---------------3----------1----------------------|

“You’re drunk, you need it...”
      Am        C/G         ?
e|-------------------------------------------------|
B|-------------------------------------------------|
G|-------------------------------------------------| x2
D|------2-2-2------2-2-2------2-2-2---2-2-2--------|
A|----0--------------------------------------------|
E|---------------3----------1----------------------|

Chorus:

Guitar 1
      Am        C/G         ?
e|-------------------------------------------------|
B|-------------------------------------------------|
G|-------------------------------------------------| x4
D|------2-2-2------2-2-2------2-2-2---2-2-2--------|
A|----0--------------------------------------------|
E|---------------3----------1----------------------|

Repeat the verses (without higher notes) and chorus


| /  slide up
| \  slide down
| h  hammer-on
| p  pull-off
| ~  vibrato
| +  harmonic
| x  Mute note
=============================================================================
Tap to rate this tab
# A B C D E F G H I J K L M N O P Q R S T U V W X Y Z